Radio Silence Tabs & Lyrics by Harvey Danger

Radio Silence

guitar tabs lyrics

Harvey Danger

Album : Where Have All the Merrymakers Gone? alternative rock PlayStop



Intro riff
E|--------3----------3-------------------1--|
B|--0--1-------0--1------0--1--3----0----1--|
G|--0----------0---------0----------0----2--|
D|--2----------2---------0----------0----3--|
A|--3----------0---------2----------2----3--| x3
E|-----------------------3----------0----1--|

E|---------------1--|
B|--1--3----0----1--|

G}----------0----2--|
D|----------0----3--|
A|----------2----3--| x3
E|----------0----1--|

Main Riff

E|--------------------------0---0---1---1-|
B|------1-----0-----3-----0---0---0---1---|
G|----2-----0-----2-----0-----------------| repeat till you hear the end
D|--3-----0-----1-----0-------------------|
A|----------------------------------------|
E|----------------------------------------|

W|------|
B|------|
G|------|
D|------| hit these power chords at the end of the main riff
A|6-3-6-|
E|6-3-6-|

im 90% sure this is correct
enjoy

any problems email me at kevinmcd28@yahoo.com

Like us on Facebook.....
-> Loading Time :0.0084 sec