Hideaway Tabs & Lyrics by The Olivia Tremor Control

Hideaway

guitar tabs lyrics

The Olivia Tremor Control

Album : HideawayPlayStop



This is a beautiful song by a great band. I did NOT tab this song; it was tabbed by
George and he did an amazing job, so I thought I'd share it. Full credit to him (and props
him for great work).


Song: Hideaway
Artist: Lapush
Album: Someplace Closer to Here
tabbed by Zachary George

Capo on 4th fret (tab relative to the capo)
Tuning: Eb Ab Db Gb Bb Eb

finger-picked on an acoustic


INTRO
Em G D
e|-------------------|----------------------|-------------0------------|
B|----------3p2p0----|----------------------|------3--------3----------|
G|-----0----------2--|-----2-0--------------|-----------------0--------|
D|-0h2---------------|---------0-4-2p0-0h2--|----4---0h4---------------|
A|-------------------|----------------------|--5-----------------------|
E|-------0-----------|--3-------------------|--------------------------|

A7 Em G
e|-----------0-----|-------------------|-------------------------------|
B|-----2-------2---|--------8---7---0--|---------0---------------------|
G|---------------0-|-------------------|----4--------4---0-------------|
D|---2---0h2-------|-------------------|-------------------------------|
A|-0---------------|----7--------------|-------------------------------|
E|-----------------|--0---0---0---0----|--3---3----3---3---------------|

D A7
e|-------------0------------|------------0-------||
B|------3--------3----------|------2-------2-----||
G|-----------------0--------|----------------0---||
D|----4---0h4---------------|----2---0h2---------||
A|--5-----------------------|--0-----------------||
E|--------------------------|--------------------||

VERSE
Em G D
e|---------------|---------------|--------------------|
B|--------0------|---------------|--------3-----------|
G|------------0--|--------0------|----0-------0-------|
D|----2----------|------------0--|------4---4---------|
A|----------2----|----2----------|--5-----------------|
E|--0---0--------|--3---3---3----|--------------------|

A7 Em G
e|-----------0-----|-------------------|-------------------------------|
B|-----2-------2---|--------8---7---0--|---------0---------------------|
G|---------------0-|-------------------|----4--------4---0-------------|
D|---2---0h2-------|-------------------|-------------------------------|
A|-0---------------|----7--------------|-------------------------------|
E|-----------------|--0---0---0---0----|--3---3----3---3---------------|

D A7

e|----------0------------|------------0-------||
B|--------3---3----------|------2-------2-----||
G|------0-------0--------|--------------------||
D|----4------------------|----2---0h2---------||
A|--5--------------------|--0-----------------||
E|-----------------------|--------------------||


CHORUS
Em G D A7
e|---------------|-------------------|--------------0-----|-----------0----|
B|---------------|-------------------|-------3--------3---|-----2-------2--|
G|--------0------|-------------------|--------------------|----------------|
D|------2---2----|--------0----------|----4-----0h4-------|---2---0h2------|
A|----2-------2--|----2-------2---2--|--5-----------------|-0--------------|
E|--0------------|--3---3---3---3----|--------------------|----------------|

Em G D A7
e|--------------|-------------------|-------------------|----------0------||
B|--------------|-------------------|----------3--------|------------2----||
G|-------0------|-------------------|------0-----0------|-----0----------0||
D|-----2---2----|--------0----------|----4---4-----4----|---2---2------2--||
A|---2-------2--|----2-------2---2--|--5----------------|-0---------------||
E|-0------------|--3---3---3---3----|-------------------|-----------------||


INTRO
VERSE
CHORUS

BRIDGE
D Cadd2 G/B G
e|--------2---0------|--------2---0-----|-------2---0------|-------0-------|
B|--------3---3------|--------3---3-----|-------3---3------|-----------3---|
G|---2------------2--|---0------------0-|---0------------0-|---0----------0|
D|-0---0----0---0----|------------------|------------------|---------------|
A|-------------------|-3---3----3---3---|-2---2---2----2---|---------------|
E|-------------------|------------------|------------------|-3---3---3---0-|

D Cadd2 G/B G
e|--------2---0------|--------2---3---0-|-------2---0------|-------2----0-||
B|--------3---3------|--------3---3---3-|-------3---3------|-------3----3-||
G|---2------------2--|---0--------------|---0------------0-|---0----------||
D|-0---0----0---0----|------------------|------------------|--------------||
A|-------------------|-3---3----3---3---|-2---2---2----2---|--------------||
E|-------------------|------------------|------------------|-3---3---3----||


CHORUS out


Good luck, and thanks again to Zachary George

Like us on Facebook.....
-> Loading Time :0.0066 sec