Hellman Tabs & Lyrics by Millencolin

Hellman

guitar tabs lyrics

Millencolin

Album : Pennybridge Pioneers albums i own PlayStop



Estimados amigos(as) guitarrístas:
Le garantizo el 100% el sonido y la cantidad de los traste en ésta canción.
Favor de aplicar todas las técnicas que se hace notar debajo de los trastes.
Cualquier corrección o error, favor de hacermelo saber a través de ésta dirección
de correo electrónico, team_madhouse_tm@hotmail.com.

LEYENDA:

(PM) = Palm Mute
(x) = Palm Mute Breve (Palma Izquierda)

(H) = Hold
(s) = Vibratos
(b) = Bend
(TP) = Traste Pick (Gancho)
() = Harmonic Natural

ORDEN:

( Siga la secuencia del tablero; están ordenados como es la canción ).


Intro A: Gtr. 1
e ------------------------------------------------------------------------------
B ------------------------------------------------------------------------------
G --77777777----------(10)(10)(10)(10)(10)(10)(10)(10)(10)(10)(10)(10)----------
D --77777777-88888888-(10)(10)(10)(10)(10)(10)(10)(10)(10)(10)(10)(10)----------
A --55555555-88888888-8---8---8---8---8---8---8---8---8---8---8---8-------------
E -----------66666666---------------------------------------------------------X5
(PM .................................................................)

Intro B: Gtr. 2
e ------------------------------------------------------------------------------
B ------------------------------------------------------------------------------
G --77777777--------------------------------------------------------------------
D --77777777-88888888-333333333333----------------------------------------------
A --55555555-88888888-333333333333----------------------------------------------
E -----------66666666-111111111111--------------------------------------------X2
(PM ..............................)

Interlude A: Gtr. 2
e ------------------------------------------------------------------------------
B ------------------------------------------------------------------------------
G --77777777------------------------55-55-x-5s----------------------------------
D --77777777-88888888-333333333333--55-55-x-5s----------------------------------
A --55555555-88888888-333333333333--33-33-x-3s----------------------------------
E -----------66666666-111111111111--------------------------------------------X1
(PM .................)

Riff A:
e ------------------------------------------------------------------------------
B ------------------------------------------------------------------------------
G --777777-999999-(14)(14)(14)(14)(14)(14)-(10)(10)(10)(10)(10)(10)-(10)/(12)---
D --x-x-x-x-x-x-x-x-x-x-x-x-x-x-x-x-x-x-x-x-x-x-x-x-x-x-x-x-x-x-x-x-------------
A --555555-777777-(12)(12)(12)(12)(12)(12)--8---8---8---8---8---8------8/(10)---
E ----------------------------------------------------------------------------X2

Interlude B:
e ------------------------------------------------------------------------------
B ------------------------------------------------------------------------------
G --777777-999999-(14)b(14)b(14)b(14)b(14)b(14)-(10)(10)(10)(10)(10)--(10)/(12)-
D --x-x-x-x-x-x-x-x-x-x-x-x-x-x-x-x-x-x-x-x-x-x-x-x-x-x-x-x-x-x-x-x-------------
A --555555-777777-(12)-(12)-(12)-(12)-(12)-(12)--8---8---8---8---8-------8/(10)-
E ----------------------------------------------------------------------------X1

Interlude C:
e ------------------------------------------------------------------------------
B ------------------------------------------------------------------------------
G --777777-999999-(14)(14)(14)(14)(14)(14)-(10)(10)(10)--(10)-(12)s--(10)-(11)s-
D --x-x-x-x-x-x-x-x-x-x-x-x-x-x-x-x-x-x-x-x-x-x-x-x-x-x-------------------------
A --555555-777777-(12)(12)(12)(12)(12)(12)--8--8--8--8-----8--(10)s---8----9s---
E ----------------------------------------------------------------------------X1

( Intro A ) ( Gtr. 1 ) ( Intro B ) X5 ( Gtr. 2 )

( Interlude A )

( Riff A )

( Interlude B )

( Interlude C )

Bridge:
e ------------------------------------------------------------------------------
B ------------------------------------------------------------------------------
G --(11)-(10)-------------------------------------------------------------------
D ------------------------------------------------------------------------------
A ------------------------------------------------------------------------------
E ---------------------------------------------------------------------------X25

Outro A:
e ------------------------------------------------------------------------------
B ------------------------------------------------------------------------------
G --7-7-7-7-7-7-7-7--5-5-5-5-5-5-5-5--3-3-3-3-3-3-3-3-3-3--333333---------------
D --7-7-7-7-7-7-7-7--5-5-5-5-5-5-5-5--3-3-3-3-3-3-3-3-3-3--333333---------------
A --5-5-5-5-5-5-5-5--3-3-3-3-3-3-3-3--1-1-1-1-1-1-1-1-1-1--111111---------------
E ----------------------------------------------------------------------------X1
(PM ....................................................)

Outro B:
e ------------------------------------------------------------------------------
B ------------------------------------------------------------------------------
G --55-55-x-5-55-55-x-5---------------------------------------------------------
D --55-55-x-5-55-55-x-5---------------------------------------------------------
A --33-33-x-3-33-33-x-3H--------------------------------------------------------
E ----------------------------------------------------------------------------X1

( Riff A )

( Interlude B )

( Riff A ) X1

Outro C:
e ------------------------------------------------------------------------------
B ------------------------------------------------------------------------------
G --777777-999999-(14)s---------------------------------------------------------
D --x-x-x-x-x-x-x-x-------------------------------------------------------------
A --555555-777777-(12)s---------------------------------------------------------
E ----------------------------------------------------------------------------X1
(TP)

Outro D:
e ------------------------------------------------------------------------------
B ------------------------------------------------------------------------------
G ----------------------------------------------------------------------------
D ----------------------------------------------------------------------------
A ----------------------------------------------------------------------------
E ----------------------------------------------------------------------------X1
(AN )

Eso es todo. Buena suerte y viva! el Punk y el Rock.

Like us on Facebook.....
-> Loading Time :0.0211 sec