Child Tabs & Lyrics by GWAR

Child

guitar tabs lyrics

GWAR

Album : We Kill Everything gwar PlayStop



This is another strange song from "We Kill Everything".
It's one of GWAR's more bluesy-rock oriented songs.

All strings tuned half-step down.

Intro/Verse
|----------------------------------------------------------------|
|----------------------------------------------------------------|
|--------7-----7-7-----5-5-----8-8-------7-----7--------7-----7--|
|--7-7-7-7-7-7-7-7-5-5-5-5-8-8-8-8-7-7-7-7-7-7-7--7-7-7-7-7-7-7--|

|--5-5-5-5-5-5-5-5-3-3-3-3-6-6-6-6-5-5-5-5-5-5-5--5-5-5-5-5-5-5--|
|----------------------------------------------------------------|
PM . . . . . . . . . . . . . . . . . . . .

|-----------------------------------------------------|
|-----------------------------------------------------|
|--------7-----7-7-----5-5-----3-3--------------------|
|--7-7-7-7-7-7-7-7-5-5-5-5-3-3-3-3-7-7-7-7-7-7-7-7-7--|
|--5-5-5-5-5-5-5-5-3-3-3-3-1-1-1-1-5-5-5-5-5-5-5-5-5--|
|-----------------------------------------------------| x3
PM . . . . . . . . . . . . . . . . . .

Verse Part 2 ("She caught the sperm in her mouth...")
|---------------------------------------|
|---------------------------------------|
|--11-11-11-11-9-9-9-9-7-7-7-7-7-7-7-7--|
|--11-11-11-11-9-9-9-9-7-7-7-7-7-7-7-7--|
|---9--9--9--9-7-7-7-7-5-5-5-5-5-5-5-5--|
|---------------------------------------| x3

|---------------------------|
|---------------------------|
|--9-9-9-9-9-9-9-9-9-9\\\\--|
|--9-9-9-9-9-9-9-9-9-9\\\\--|
|--7-7-7-7-7-7-7-7-7-7\\\\--|
|---------------------------|


Repeat Intro/Verse
Repeat Verse Part 2
Repeat Intro/Verse x2


Outro ("You wanna get outta your life...")
|----------------------------------------------|
|----------------------------------------------|
|--7-7-7-7-7-7-7-7--9-9-9-9-9-9-9-9--11--------|
|--7-7-7-7-7-7-7-7--9-9-9-9-9-9-9-9--11-(x16)--|
|--5-5-5-5-5-5-5-5--7-7-7-7-7-7-7-7---9--------|
|----------------------------------------------| x7
PM . . . . . . . . . . . . . . . . .


Ending
|-----------------------------------------------------|
|-----------------------------------------------------|
|----7-----------------9---------------------------7--|
|----7-----------------9---------------------------7--|
|----5-----------------7---------------------------5--|
|-----------------------------------------------------|
"I don't have a dime, and I don't give a damn."

Legend
=======
PM | Palm Muting
\ | Slide Down
~ | Hold Note/Vibrato

That's about it. Feedback is welcome.

-DH
========================================

Like us on Facebook.....
-> Loading Time :0.0273 sec