Revolt Tabs & Lyrics by Vader

Revolt

guitar tabs lyrics

Vader

Album : De profundis death metal PlayStop



Band: Vader
Album: De Profundis
Song: Revolt
by vaderfan.....start learning polish!!! Riff 1
d----------------------------------|--------------------------------------||
a----------------------------------|--------------------------------------||
f----------------------------------|--------------------------------------||
c----------9-9-9-9-8-8-------------|---------9-9-9-9-----10-10-10-10-10-10||
A--7-7-7-7-------------6-6-6-6-6-6-|-7-7-7-7---------8-8------------------||
D----------------------------------|--------------------------------------||


Riff 2
d----------------------------------|---------------------------------|
a----------------------------------|---------------------------------|
f----------------------------------|---------------------------------|
c----------------------------------|---------------------------------|
A--7-/---------7-7-7-7-7-7-----6---|-------------7-7-7-7-7-7-5h6h7-8-|
D--5-/-6-6-6-6-------------5-------|-6-6-6-6-6-6---------------------|

d----------------------------------|---------------------------------|
a----------------------------------|---------------------------------|
f----------------------------------|---------------------------------|
c----------------------------------|---------------------------------|
A--------------7-7-7-7-7-7-----6---|-------------7-7-7-7-7-7-5h6h7-8-|
D--6-6-6-6-6-6-------------5-------|-6-6-6-6-6-6---------------------|

d----------------------------------|---------------------------------||
a----------------------------------|---------------------------------||
f----------------------------------|---------------------------------||
c----------------------------------|---------------------------------||
A--5-5-5-5-5-5-5-7p5-4-4-4-----7---|-5-5-5-5-5-5-5-7p5-4-4-4-----7---||
D--------------------------4-5-----|-------------------------4-5-----||

Riff 2

Riff 3
d----------------------------------|---------------------------------|
a----------------------------------|---------------------------------|
f----------------------------------|---------------------------------|
c----------------------------------|---------------------------------|
A------------------5-5-5-5-5-5-5-5-|---------------------------------|
D--3-3-3-3-3-3-3-3-----------------|-2-2-2-2-2-2-2-2-2-2-2-2-2-2-2-2-|

d----------------------------------|---------------------------------|
a----------------------------------|---------------------------------|
f----------------------------------|---------------------------------|
c----------------------------------|---------------------------------|
A------------------5-5-5-5-5-5-5-5-|-4h5p4-4-4-4-4-4-4-4-4-4-4-4-4-4-|
D--3-3-3-3-3-3-3-3-----------------|---------------------------------|

d----------------------------------|---------------------------------|
a----------------------------------|---------------------------------|
f----------------------------------|---------------------------------|
c----------------------------------|---------------------------------|
A------------------5-5-5-5-5-5-5-5-|---------------------------------|
D--3-3-3-3-3-3-3-3-----------------|-2-2-2-2-2-2-2-2-2-2-2-2-2-2-2-2-|

d----------------------------------|---------------------------------|
a----------------------------------|---------------------------------|
f----------------------------------|---------------------------------|
c----------------------------------|---------------------------------|
A------------------5-5-5-5-5-5-5-5-|-4h5p4-6-6-6-6-6-6-6-6-6-6-6-6-6-|
D--3-3-3-3-3-3-3-3-----------------|---------------------------------|

Riff 3-1
d--------------|
a--------------|
f--------------|
c--------------|
A--6-5-0-4-5-6-|
D--------------|
[ pol taktu ]

Riff 1

Riff 2

Riff 3 (Ostatni takt jest grany inaczej)

d----------------------------------|---------------------------------|
a----------------------------------|---------------------------------|
f----------------------------------|---------------------------------|
c----------------------------------|---------------------------------|
A------------------5-5-5-5-5-5-5-5-|-4h5p4-6-------------------------|
D--3-3-3-3-3-3-3-3-----------------|---------------------------------|
[ przedostatni jak wyzej ] [ ten ostatni inaczej ]

Riff 3-4
d--------------|
a--------------|
f--------------|
c--7---5---6---|
A--5---3---4---|
D--------------|
[ pol taktu ]


Riff 4
d-----------------------------------------------|
a-----------------------------------------------|
f-----------------------------------------------|
c-----------------------------------------------|
A-----------------------------------------------|
D--3-3-3-3-3-3-5-5-5-5-5-5-4-4-4-5--4--3--3-3-3-|
[3] [3] [3] [3] [3] [3] [3]

d-----------------------------------------------||
a-----------------------------------------------||
f-----------------------------------------------||
c-----------------------------------------------||
A-----------------------------------------------||
D--3-3-3-3-3-3-5-5-5-5-5-5-4-4-4-5--4--3--5-4-3-||
[3] [3] [3] [3] [3] [3] [3]

Riff 4-5
d--------------|
a--------------|
f--------------|
c--%-----------|
A--------------|
D------5---4---|
[ pol taktu ]

Riff 5
d----------------------------------------------|
a----------------------------------------------|
f----------------------------------------------|
c----------------------------------------------|
A--------------4-4-4-4-4-4-5-5-5-5-5-5-6-6-5-4-|
D--6-6-6-6-6-6---------------------------------|
[3] [3] [3] [3] [3] [3]

Riff 4B
d-----------------------------------------------|
a-----------------------------------------------|
f-----------------------------------------------|
c-----------------------------------------------|
A-----------------------------------------------|
D--3-3-3-3-3-3-5-5-5-5-5-5-4-4-4-5--4--3--5-4-3-|
[3] [3] [3] [3] [3] [3] [3]

d--------------------------------------------------||
a--------------------------------------------------||
f--------------------------------------------------||
c--------------------------------------------------||
A--------------------------------------------------||
D--3-3-3-3-3-3-5-5-5-5-5-5-4-4-4-5-4-3-5-4-3-5-4-3-||
[3] [3] [3] [3] [3] [3] [3] [3]

Riff 5

Riff 4C
d--------------------------------------------------|
a--------------------------------------------------|
f--------------------------------------------------|
c--------------------------------------7-6-5-7-6-5-|
A--------------------------------------------------|
D--3-3-3-3-3-3-5-5-5-5-5-5-4-4-4-5-4-3-------------|
[3] [3] [3] [3] [3] [3] [3] [3]

d--------------------------------------------------||
a--------------------------------------------------||
f--------------------------------------------------||
c--------------------------------------7-6-5-7-6-5-||
A--------------------------------------------------||
D--3-3-3-3-3-3-5-5-5-5-5-5-4-4-4-5-4-3-------------||
[3] [3] [3] [3] [3] [3] [3] [3]

Riff 4C-6
d--------------|
a--------------|
f--------------|
c--7-7-5-5-6-6-|
[druga gitara]
A--------------|
D--5---4---6---|
[ obie pol taktu ]

Riff 6
d--------------------------------------------------||
a--------------------------------------------------||
f--------------------------------------------------||
c--------------------------------------------------||
A--------------------------------------------------||
D--4-4-4-5-5-5-6-6-6-6-6-6-4-4-4-5-5-5-6-6-6-6-6-6-||
[3] [3] [3] [3] [3] [3] [3] [3]

Riff 6-7
d--------------|
a--------------|
f--------------|
c--------------|
A--------------|
D--6---5---4---|

Riff 7 (pod solo) 2x
d----------------------------------|---------------------------------||
a----------------------------------|---------------------------------||
f----------------------------------|---------------------------------||
c----------------------------------|---------------------------------||
A----------------------------------|-----------------5-5-4-4-4-4-4-4-||
D--3-3-3-3-3-3-3-3-2-2-2-2-2-2-2-2-|-3-3-3-3-3-3-3-3-----------------||

Riff 7-1
d--------------|
a--------------|
f--------------|
c--------------|
A--6-5-0-4-5-6-|
D--------------|
[ pol taktu ]

Riff 1

Riff 3

Riff 3-4

[koniec]
========

Like us on Facebook.....
-> Loading Time :0.0149 sec