Self-Inflicted Tabs & Lyrics by Crowbar

Self-Inflicted

guitar tabs lyrics

Crowbar

Album : Crowbar sludge PlayStop



Self Inflicted by Crowbar

Tuning: A,E,A,D,Gb,B

-I'm about 99.5% sure this is all right. It took me about 3 months to make sure every
of it is correct. If you find something you aren't sure about, email me. The address is at
bottom. Here it is...

Verse:
---|--------------------------------------------------------------|

---|--------------------------------------------------------------|
---|--------------------------------------------------------------|
5-3|33333333-5-3-5-2-22222222-5-3-5-3-----------------------------| x4
5-3|33333333-5-3-5-2-22222222-5-3-5-3-----------------------------|
5-3|33333333-5-3-5-2-22222222-5-3-5-3-----------------------------|
******** ********
--
--
--
2- (Repeat that till it leads you into the chorus)
2-
2-
*

Chorus:
----------------------|
----------------------|
----------------------|
10-10\9-9-------------| x4
-8--8\7-7--8-8\7------|
-----------8-8\7------|

Verse x4
Chorus x8

---------------------------|
---------------------------|
---------------------------|
5-3-33333333-5-3-5---------|
5-3-33333333-5-3-5---------|
5-3-33333333-5-3-5---------|
********

Nice and Heavy Baby:
-------------------------------------------------------------------------|
-------------------------------------------------------------------------|
-------------------------------------------------------------------------|
2-2--2-22------2-2--2-22------5-4-3--0-0--0-00--4-3-4--0-0--0-00--4-3-4--| x3
2-2--2-22------2-2--2-22------5-4-3--0-0--0-00--4-3-4--0-0--0-00--4-3-4--|
2-2--2-22-\8-7-2-2--2-22-\8-7-5-4-3--0-0--0-00--4-3-4--0-0--0-00--4-3-4--|
* * * ** * * * ** * * * ** * * * **

After third time:
---
---
---
-2- (Hold until Outro)
-2-
-2-

Outro:
------------------------------------------------------|
------------------------------------------------------|
------5-4---------------------------------------------|
2---2-5-4--2--2\8-7-5---------------------------------| x8
2---2-3-2--2--2\8-7-5---------------------------------|
2---2------2--2\8-7-5---------------------------------|

'Self-Inflicted'
---------------------------------------------------------------------|
---------------------------------------------------------------------|
5--5--------------------------------5--5-----------------------------|
3--3--2\10-9-8-8-8---2-3-2-3\8-7-5--3--3--2\10-9-8-8-8---3-2---------|
3--3--2\10-9-8-8-8---2-3-2-3\8-7-5--3--3--2\10-9-8-8-8---3-2---------|
------2\10-9-8-8-8---2-3-2-3\8-7-5--------2\10-9-8-8-8---3-2---------|
* * * * *

Well, that's it. If there are any mistakes or have any questions, email me and we'll
about it. [email protected]
Enjoy. Crowbar Forever!

Like us on Facebook.....
-> Loading Time :0.0100 sec