My Reason Tabs & Lyrics by LINKIN PARK

My Reason

guitar tabs lyrics

LINKIN PARK

Album : Greatest HitsPlayStop


-------------------------------------------------------------------------------
My Reason - Linkin Park
-------------------------------------------------------------------------------
Tabbed by: Phoenix154

Note: Some People think this is Chester's former band's song (Grey Daze)! I'm not sure
they're right or not, but this is a great song :P

Intro
e|------------------------------|-------------------------------|

B|------------------------------|-------------------------------|
G|---0-----2-----3-----2-3-2----|----0-----2-----3-----2--5-5-5-|
D|-0---0-0---0-0---0-0------3---|--0---0-0---0-0---0-0----------|
A|------------------------------|-------------------------------|
E|------------------------------|-------------------------------|

e|------------------------------|-------------------------------|
B|------------------------------|-------------------------------|
G|---0-----2-----3-----2-3-2----|----0-----2-----3-----2--5-5-5-|
D|-0---0-0---0-0---0-0------3---|--0---0-0---0-0---0-0----------|
A|------------------------------|-------------------------------|
E|------------------------------|-------------------------------|

e|------------------------------|-------------------------------|
B|------------------------------|-------------------------------|
G|----0h2--3-3-3--3-2--2-3-2----|----0h2-3-3-3--3-2--5-5-5------|
D|--0-----------------------3---|--0----------------------------|
A|------------------------------|-------------------------------|
E|------------------------------|-------------------------------|

e|------------------------------|-------------------------------|
B|------------------------------|-------------------------------|
G|----0h2--3-3-3--3-2--2-3-2----|----0h2-3-3-3~-----------------|
D|--0-----------------------3---|--0----------------------------|
A|------------------------------|-------------------------------|
E|------------------------------|-------------------------------|

Pre-Chorus
e|--------------------------------------------------------------|
B|--------------------------------------------------------------|
G|-0-0-0-0-0-0-0-0-3-3-3-3-3-3-3-3--------------5~--------------|
D|-0-0-0-0-0-0-0-0-5-5-5-5-5-5-5-5-3--3--3-3-3------------------|
A|---------------------------------1--1--1-1-1------------------|
E|--------------------------------------------------------------|


e|--------------------------------------------------------------|
B|--------------------------------------------------------------|
G|-0-0-0-0-0-0-0-0-3-3-3-3-3-3-3-3---------5-3-3-3--2-2-3-------|
D|-0-0-0-0-0-0-0-0-5-5-5-5-5-5-5-5-3--3--3----------------------|
A|---------------------------------1--1--1----------------------|
E|--------------------------------------------------------------|

e|--------------------------------------------------------------|
B|--------------------------------------------------------------|
G|-0-0-0-0-0-0-0-0-3-3-3-3-3-3-3-3--------------5~--------------|
D|-0-0-0-0-0-0-0-0-5-5-5-5-5-5-5-5-3--3--3-3-3------------------|
A|---------------------------------1--1--1-1-1------------------|
E|--------------------------------------------------------------|


e|--------------------------------------------------------------|
B|--------------------------------------------------------------|
G|-0-0-0-0-0-0-0-0-3-3-3-3-3-3-3-3------------------------------|
D|-0-0-0-0-0-0-0-0-5-5-5-5-5-5-5-5-3--3--3-3--------------------|
A|---------------------------------1--1--1-1--------------------|
E|--------------------------------------------------------------|

Verse (repeat this until pre-Chorus)
e|--------------------------------------------------------------|
B|--------------------6--6-6--5-5--5-5--------------------------|
G|--7--7-7--5-5--5-5--------------------------------------------|
D|--------------------------------------------------------------|
A|--------------------------------------------------------------|
E|--------------------------------------------------------------|

e|--------------------------------------------------------------|
B|--------------------6p5--5-5-5--5-5---------------------------|
G|--7--7-7--5-5--5-5--------------------------------------------|
D|--------------------------------------------------------------|
A|--------------------------------------------------------------|
E|--------------------------------------------------------------|

Pre-Chorus

e|--------------------------------------------------------------|
B|--------------------------------------------------------------|
G|-0-0-0-0-0-0-0-0-3-3-3-3-3-3-3-3--------------5~--------------|
D|-0-0-0-0-0-0-0-0-5-5-5-5-5-5-5-5-3--3--3-3-3------------------|
A|---------------------------------1--1--1-1-1------------------|
E|--------------------------------------------------------------|


e|--------------------------------------------------------------|
B|--------------------------------------------------------------|
G|-0-0-0-0-0-0-0-0-3-3-3-3-3-3-3-3---------5-3-3-3--2-2-3-------|
D|-0-0-0-0-0-0-0-0-5-5-5-5-5-5-5-5-3--3--3----------------------|
A|---------------------------------1--1--1----------------------|
E|--------------------------------------------------------------|

e|--------------------------------------------------------------|
B|--------------------------------------------------------------|
G|-0-0-0-0-0-0-0-0-3-3-3-3-3-3-3-3--------------5~--------------|
D|-0-0-0-0-0-0-0-0-5-5-5-5-5-5-5-5-3--3--3-3-3------------------|
A|---------------------------------1--1--1-1-1------------------|
E|--------------------------------------------------------------|

Chorus (starts here)
e|---------------------------------------------|-----------------|
B|---------------------------------------------|-----------------|
G|-0-0-0-0-0-0-0-0-3-3-3-3-3-3-3-3-------------|-----------------|
D|-0-0-0-0-0-0-0-0-5-5-5-5-5-5-5-5-3--3--3---5-|--7-7-7-7-7-7-7-7|
A|---------------------------------1--1--1---3-|-----------------|
E|---------------------------------------------|-----------------|

Chorus
e|---------------------------------------------------------------|
B|---------------------------------------------------------------|
G|-5---3--5h7---7--7-5--5--3-3-----7-5-5-5-4-4-5-----------------|
D|---------------------------------------------------------------|
A|---------------------------------------------------------------|
E|---------------------------------------------------------------|

e|---------------------------------------------------------------|
B|---------------------------------------------------------------|
G|----------------5---3--5h7---7--7-5--5--3-3----7-5-5-5-4-4-5---|
D|7-7-7-7-7-7-7-7------------------------------------------------|
A|---------------------------------------------------------------|
E|---------------------------------------------------------------|

e|---------------------------------------------------------------|
B|---------------------------------------------------------------|
G|-----------------7--5--7-9~---7--5--3-5~-----------------------|
D|7-7-7-7-7-7-7-7------------------------------------------------|
A|---------------------------------------------------------------|
E|---------------------------------------------------------------|

Verse (repeat this until pre-Chorus)
e|--------------------------------------------------------------|
B|--------------------6--6-6--5-5--5-5--------------------------|
G|--7--7-7--5-5--5-5--------------------------------------------|
D|--------------------------------------------------------------|
A|--------------------------------------------------------------|
E|--------------------------------------------------------------|

e|--------------------------------------------------------------|
B|--------------------6p5--5-5-5--5-5---------------------------|
G|--7--7-7--5-5--5-5--------------------------------------------|
D|--------------------------------------------------------------|
A|--------------------------------------------------------------|
E|--------------------------------------------------------------|

Pre-Chorus

e|--------------------------------------------------------------|
B|--------------------------------------------------------------|
G|-0-0-0-0-0-0-0-0-3-3-3-3-3-3-3-3--------------5~--------------|
D|-0-0-0-0-0-0-0-0-5-5-5-5-5-5-5-5-3--3--3-3-3------------------|
A|---------------------------------1--1--1-1-1------------------|
E|--------------------------------------------------------------|


e|--------------------------------------------------------------|
B|--------------------------------------------------------------|
G|-0-0-0-0-0-0-0-0-3-3-3-3-3-3-3-3---------5-3-3-3--2-2-3-------|
D|-0-0-0-0-0-0-0-0-5-5-5-5-5-5-5-5-3--3--3----------------------|
A|---------------------------------1--1--1----------------------|
E|--------------------------------------------------------------|

e|--------------------------------------------------------------|
B|--------------------------------------------------------------|
G|-0-0-0-0-0-0-0-0-3-3-3-3-3-3-3-3--------------5~--------------|
D|-0-0-0-0-0-0-0-0-5-5-5-5-5-5-5-5-3--3--3-3-3------------------|
A|---------------------------------1--1--1-1-1------------------|
E|--------------------------------------------------------------|

Chorus (starts here)
e|---------------------------------------------|-----------------|
B|---------------------------------------------|-----------------|
G|-0-0-0-0-0-0-0-0-3-3-3-3-3-3-3-3-------------|-----------------|
D|-0-0-0-0-0-0-0-0-5-5-5-5-5-5-5-5-3--3--3---5-|--7-7-7-7-7-7-7-7|
A|---------------------------------1--1--1---3-|-----------------|
E|---------------------------------------------|-----------------|

Chorus
e|---------------------------------------------------------------|
B|---------------------------------------------------------------|
G|-5---3--5h7---7--7-5--5--3-3-----7-5-5-5-4-4-5-----------------|
D|---------------------------------------------------------------|
A|---------------------------------------------------------------|
E|---------------------------------------------------------------|

e|---------------------------------------------------------------|
B|---------------------------------------------------------------|
G|----------------5---3--5h7---7--7-5--5--3-3----7-5-5-5-4-4-5---|
D|7-7-7-7-7-7-7-7------------------------------------------------|
A|---------------------------------------------------------------|
E|---------------------------------------------------------------|

Bridge (Starts here) (17 times)
e|--------------------------------------|-------------------------|
B|--------------------------------------|-------------------------|
G|-----------------7--5--7-9~---7--5--3-|-------------------------|
D|7-7-7-7-7-7-7-7-----------------------|-0--x--x-x-0--x--x-x-0---|
A|--------------------------------------|-0--x--x-x-0--x--x-x-0---|
E|--------------------------------------|-------------------------|

Bridge
e|---------------------------------------------------------------------|
B|---------------------------------------------------------------------|
G|------5-5-5-5-5-5-5-5-7-7-7-7-7-7-7-7-8-8-8-8-8-8-8-8-7-7-7-7-7-7-7-7|
D|-0-------------------------------------------------------------------|
A|-0-------------------------------------------------------------------|
E|---------------------------------------------------------------------|

e|---------------------------------------------------------------------|
B|---------------------------------------------------------------------|
G|-5-5-5-5-5-5-5-5-7-7-7-7-7-7-7-7-8-8-8-8-8-8-8-8-10------------------|
D|---------------------------------------------------------------------|
A|---------------------------------------------------------------------|
E|---------------------------------------------------------------------|

fades out...
e|---------------------------------------------------------------|
B|---------------------------------------------------------------|
G|-----------------7--5--7-9~---7--5--3--------------------------|
D|7-7-7-7-7-7-7-7------------------------------------------------|
A|---------------------------------------------------------------|
E|---------------------------------------------------------------|


| / slide up
| \ slide down
| h hammer-on
| p pull-off
| ~ vibrato
| + harmonic
| x Mute note
===============================================================================

Like us on Facebook.....
-> Loading Time :0.0704 sec