Sweet and Innocent Tabs & Lyrics by Diamond Head

Sweet and Innocent

guitar tabs lyrics

Diamond Head

Album : Behold the Beginning nwobhm PlayStop


Artist: Diamond Head
Song: Sweet and Innocent
Album: Lightning to the Nations (Released 09/01/81)
Lineup:
Sean Harris: Lead Vocals/Rhythm Guitar
Brian Tatler: Guitar
Colin Kimberley: Bass
Duncan Scott: Drums

Tabbed by: SethMegadefan

Email: sal2@mchsi.net

Tuning: Standard (EADGBE)

Note: This song is basically all done in triplets... please note that each - represents
one-sixth of each triplet, therefore: -- is one-third of a triplet, is two-thirds
of a triplet, and is one full triplet. This is a great song for beginners, because
there are no solos. It requires only one guitar player, so for all you

three-piece bands out there, this is a real treat.

e|------------------------|------------------------|------------------------|------------------------|
B|------------------------|------------------------|------------------------|------------------------|
G|------------------------|------------------------|------------------------|------------------------|
D|------------------------|------------------------|------------------------|------------------------|
A|--------7----5--0----7--|--------7----5--0----7--|--------7----5--0----7--|--------7----5--0----7--|
E|0---0------0------------|0---0------0------------|0---0------0------------|0---0------0------------|
. . . . . . . . . . . .

e|------------------------|------------------------|------------------------|------------------------|
B|------------------------|------------------------|------------------------|------------------------|
G|------------------------|------------------------|------------------------|------------------------|
D|------------------------|------------------------|------------------------|------------------------|
A|--------7----5--0----7--|--------7----5--0----7--|--------7----5--0----7--|--------7----5--0----7--|
E|0---0------0------------|0---0------0------------|0---0------0------------|0---0------0------------|
. . . . . . . . . . . . "Yeah yeah"

e|------------------------|------------------------|------------------------|------------------------|
B|------------------------|------------------------|------------------------|------------------------|
G|------------------------|------------------------|------------------------|------------------------|
D|------------------------|------------------------|------------------------|5-----5-----7-----7-----|
A|--------7----5--0----7--|--------7----5--0----7--|--------7----5--0----7--|3-----3-----5-----5-----|
E|0---0------0------------|0---0------0------------|0---0------0------------|------------------------|
. . . . . . . . . "Ohh..."

e|------------------------|------------------------|------------------------|------------------------|
B|------------------------|------------------------|------------------------|------------------------|
G|------------------------|------------------------|------------------------|------------------------|
D|------------------------|------------------------|------------------------|5-----5-----7-----7-----|
A|--------7----5--0----7--|--------7----5--0----7--|--------7----5--0----7--|3-----3-----5-----5-----|
E|0---0------0------------|0---0------0------------|0---0------0------------|------------------------|
. . . . . . . . .

e|------------------------|------------------------|------------------------|------------------------|
B|------------------------|------------------------|------------------------|------------------------|
G|------------------------|------------------------|------------------------|------------------------|
D|------------------------|------------------------|------------------------|5-----5-----7-----7-----|
A|--------7----5--0----7--|--------7----5--0----7--|--------7----5--0----7--|3-----3-----5-----5-----|
E|0---0------0------------|0---0------0------------|0---0------0------------|------------------------|
. . . . . . . . .
"You hit it good girl Babe you hit it high"

e|------------------------|------------------------|------------------------|------------------------|
B|------------------------|------------------------|------------------------|------------------------|
G|------------------------|------------------------|------------------------|------------------------|
D|------------------------|------------------------|------------------------|5-----5-----7-----7-----|
A|--------7----5--0----7--|--------7----5--0----7--|--------7----5--0----7--|3-----3-----5-----5-----|
E|0---0------0------------|0---0------0------------|0---0------0------------|------------------------|
. . . . . . . . .
"You reach it easily Makes me wanna cry"

e|------------------------|------------------------|------------------------|------------------------|
B|------------------------|------------------------|------------------------|------------------------|
G|------------------------|------------------------|------------------------|------------------------|
D|--------7----5--0----7--|--------7----5--0----7--|--------7----5--0----7--|--------7----5--0----7--|
A|0---0------0------------|0---0------0------------|0---0------0------------|0---0------0------------|
E|------------------------|------------------------|------------------------|------------------------|
. . . . . . . . . . . .
"You come on down with a thump to the floor"

e|------------------------|------------------------|------------------------|------------------------|
B|------------------------|------------------------|------------------------|------------------------|
G|------------------------|------------------------|------------------------|------------------------|
D|------------------------|------------------------|------------------------|------------------------|
A|--------7----5--0----7--|--------7----5--0----7--|--------7----5--0----7--|--------7----5--0----7--|
E|0---0------0------------|0---0------0------------|0---0------0------------|0---0------0------------|
. . . . . . . . . . . .
"You can't put on your face anymore"

e|------------------------|------------------------|------------------------|------------------------|
B|------------------------|------------------------|------------------------|------------------------|
G|------------------------|------------------------|------------------------|------------------------|
D|5-----5-----7-----7-----|------------------------|5-----5-----7-----7-----|------------------------|
A|3-----3-----5-----5-----|--------7----5--0----7--|3-----3-----5-----5-----|--------7----5--0----7--|
E|------------------------|0---0------0------------|------------------------|0---0------0------------|
. . . . . .
"Sweet and innocent Sit her down"
[Sweet and innocent]

e|------------------------|------------------------|------------------------|*|------------------------|*|
B|------------------------|------------------------|------------------------|*|------------------------|*|
G|------------------------|------------------------|------------------------| |------------------------| |
D|5-----5-----7-----7-----|------------------------|5-----5-----7-----7-----| |------------------------| |
A|3-----3-----5-----5-----|--------7----5--0----7--|3-----3-----5-----5-----|*|--------7----5--0----7--|*|
E|------------------------|0---0------0------------|------------------------|*|0---0------0------------|*|
. . . . . .
"Sweet and innocent Pass her around"
[Sweet and innocent]


e|------------------------|------------------------|------------------------|------------------------|
B|------------------------|------------------------|------------------------|------------------------|
G|------------------------|------------------------|------------------------|------------------------|
D|------------------------|------------------------|------------------------|5-----5-----7-----7-----|
A|--------7----5--0----7--|--------7----5--0----7--|--------7----5--0----7--|3-----3-----5-----5-----|
E|0---0------0------------|0---0------0------------|0---0------0------------|------------------------|
. . . . . . . . . "Ohh..."
"Yeah!"

e|------------------------|------------------------|------------------------|------------------------|
B|------------------------|------------------------|------------------------|------------------------|
G|------------------------|------------------------|------------------------|------------------------|
D|------------------------|------------------------|------------------------|5-----5-----7-----7-----|
A|--------7----5--0----7--|--------7----5--0----7--|--------7----5--0----7--|3-----3-----5-----5-----|
E|0---0------0------------|0---0------0------------|0---0------0------------|------------------------|
. . . . . . . . .
"Oh"

e|------------------------|------------------------|------------------------|------------------------|
B|------------------------|------------------------|------------------------|------------------------|
G|------------------------|------------------------|------------------------|------------------------|
D|------------------------|------------------------|------------------------|5-----5-----7-----7-----|
A|--------7----5--0----7--|--------7----5--0----7--|--------7----5--0----7--|3-----3-----5-----5-----|
E|0---0------0------------|0---0------0------------|0---0------0------------|------------------------|
. . . . . . . . .
"You and the fashion Baby you're as one"

e|------------------------|------------------------|------------------------|------------------------|
B|------------------------|------------------------|------------------------|------------------------|
G|------------------------|------------------------|------------------------|------------------------|
D|------------------------|------------------------|------------------------|5-----5-----7-----7-----|
A|--------7----5--0----7--|--------7----5--0----7--|--------7----5--0----7--|3-----3-----5-----5-----|
E|0---0------0------------|0---0------0------------|0---0------0------------|------------------------|
. . . . . . . . .
"It's not long before It's much more than fun"

e|------------------------|------------------------|------------------------|------------------------|
B|------------------------|------------------------|------------------------|------------------------|
G|------------------------|------------------------|------------------------|------------------------|
D|--------7----5--0----7--|--------7----5--0----7--|--------7----5--0----7--|--------7----5--0----7--|
A|0---0------0------------|0---0------0------------|0---0------0------------|0---0------0------------|
E|------------------------|------------------------|------------------------|------------------------|
. . . . . . . . . . . .
"So many friends you can visit with ease"

e|------------------------|------------------------|------------------------|------------------------|
B|------------------------|------------------------|------------------------|------------------------|
G|------------------------|------------------------|------------------------|------------------------|
D|------------------------|------------------------|------------------------|5-----5-----7-----7-----|
A|--------7----5--0----7--|--------7----5--0----7--|--------7----5--0----7--|3-----3-----5-----5-----|
E|0---0------0------------|0---0------0------------|0---0------0------------|------------------------|
. . . . . . . . .
"You're taking chances with those you wish to please"

e|------------------------|------------------------|------------------------|------------------------|
B|------------------------|------------------------|------------------------|------------------------|
G|------------------------|------------------------|------------------------|------------------------|
D|5-----5-----7-----7-----|------------------------|5-----5-----7-----7-----|------------------------|
A|3-----3-----5-----5-----|--------7----5--0----7--|3-----3-----5-----5-----|--------7----5--0----7--|
E|------------------------|0---0------0------------|------------------------|0---0------0------------|
. . . . . .
"Sweet and innocent Sit her down"
[Sweet and innocent]

e|------------------------|------------------------|------------------------|
B|------------------------|------------------------|------------------------|
G|------------------------|------------------------|------------------------|
D|5-----5-----7-----7-----|------------------------|5-----5-----7-----7-----|
A|3-----3-----5-----5-----|--------7----5--0----7--|3-----3-----5-----5-----|
E|------------------------|0---0------0------------|------------------------|
. . .
"Sweet and innocent Pass her a-"
[Sweet and innocent]

e|------------------------|------------------------|------------------------|------------------------|
B|------------------------|------------------------|------------------------|------------------------|
G|------------------------|------------------------|------------------------|------------------------|
D|------------------------|------------------------|------------------------|------------------------|
A|5-5-5-5-5-5-4-4-4-4-4-4-|0h2h4-0h2h4-0h2h4-0h2h4-|5-5-5-5-5-5-4-4-4-4-4-4-|0h2h4-0h2h4-0h2h4-0h2h4-|
E|------------------------|------------------------|------------------------|------------------------|
"-round... Yeah Yeah"

e|------------------------|------------------------|------------------------|------------------------|
B|------------------------|------------------------|------------------------|------------------------|
G|------------------------|------------------------|------------------------|------------------------|
D|------------------------|------------------------|------------------------|------------------------|
A|5-5-5-5-5-5-4-4-4-4-4-4-|0h2h4-0h2h4-0h2h4-0h2h4-|5-5-5-5-5-5-4-4-4-4-4-4-|0h2h4-0h2h4-0h2h4-0h2h4-|
E|------------------------|------------------------|------------------------|------------------------|

e|------------------------|------------------------|------------------------|------------------------|
B|------------------------|------------------------|------------------------|------------------------|
G|------------------------|------------------------|------------------------|------------------------|
D|------------------------|------------------------|------------------------|5-----5-----7-----7-----|
A|--------7----5--0----7--|--------7----5--0----7--|--------7----5--0----7--|3-----3-----5-----5-----|
E|0---0------0------------|0---0------0------------|0---0------0------------|------------------------|
. . . . . . . . .
"Ow!"

e|------------------------|------------------------|------------------------|------------------------|
B|------------------------|------------------------|------------------------|------------------------|
G|------------------------|------------------------|------------------------|------------------------|
D|------------------------|------------------------|------------------------|5-----5-----7-----7-----|
A|--------7----5--0----7--|--------7----5--0----7--|--------7----5--0----7--|3-----3-----5-----5-----|
E|0---0------0------------|0---0------0------------|0---0------0------------|------------------------|
. . . . . . . . . "Oh..."

e|------------------------|------------------------|------------------------|------------------------|
B|------------------------|------------------------|------------------------|------------------------|
G|------------------------|------------------------|------------------------|------------------------|
D|------------------------|------------------------|------------------------|5-----5-----7-----7-----|
A|--------7----5--0----7--|--------7----5--0----7--|--------7----5--0----7--|3-----3-----5-----5-----|
E|0---0------0------------|0---0------0------------|0---0------0------------|------------------------|
. . . . . . . . .

e|------------------------|------------------------|------------------------|------------------------|
B|------------------------|------------------------|------------------------|------------------------|
G|------------------------|------------------------|------------------------|------------------------|
D|------------------------|------------------------|------------------------|5-----5-----7-----7-----|
A|--------7----5--0----7--|--------7----5--0----7--|--------7----5--0----7--|3-----3-----5-----5-----|
E|0---0------0------------|0---0------0------------|0---0------0------------|------------------------|
. . . . . . . . .

e|------------------------|------------------------|------------------------|------------------------|
B|------------------------|------------------------|------------------------|------------------------|
G|------------------------|------------------------|------------------------|------------------------|
D|------------------------|------------------------|------------------------|5-----5-----7-----7-----|
A|--------7----5--0----7--|--------7----5--0----7--|--------7----5--0----7--|3-----3-----5-----5-----|
E|0---0------0------------|0---0------0------------|0---0------0------------|------------------------|
. . . . . . . . .
"You hit it good girl Babe you hit it high"

e|------------------------|------------------------|------------------------|------------------------|
B|------------------------|------------------------|------------------------|------------------------|
G|------------------------|------------------------|------------------------|------------------------|
D|------------------------|------------------------|------------------------|5-----5-----7-----7-----|
A|--------7----5--0----7--|--------7----5--0----7--|--------7----5--0----7--|3-----3-----5-----5-----|
E|0---0------0------------|0---0------0------------|0---0------0------------|------------------------|
. . . . . . . . .
"You reach it easily Makes me wanna cry"

e|------------------------|------------------------|------------------------|------------------------|
B|------------------------|------------------------|------------------------|------------------------|
G|------------------------|------------------------|------------------------|------------------------|
D|--------7----5--0----7--|--------7----5--0----7--|--------7----5--0----7--|--------7----5--0----7--|
A|0---0------0------------|0---0------0------------|0---0------0------------|0---0------0------------|
E|------------------------|------------------------|------------------------|------------------------|
. . . . . . . . . . . .
"You're playing a game of chess the band don't wanna know"

e|------------------------|------------------------|------------------------|------------------------|
B|------------------------|------------------------|------------------------|------------------------|
G|------------------------|------------------------|------------------------|------------------------|
D|------------------------|------------------------|------------------------|------------------------|
A|--------7----5--0----7--|--------7----5--0----7--|--------7----5--0----7--|--------7----5--0----7--|
E|0---0------0------------|0---0------0------------|0---0------0------------|0---0------0------------|
. . . . . . . . . . . .
"So you find it baby that you don't know which way to go"

e|------------------------|------------------------|------------------------|------------------------|
B|------------------------|------------------------|------------------------|------------------------|
G|------------------------|------------------------|------------------------|------------------------|
D|5-----5-----7-----7-----|------------------------|5-----5-----7-----7-----|------------------------|
A|3-----3-----5-----5-----|--------7----5--0----7--|3-----3-----5-----5-----|--------7----5--0----7--|
E|------------------------|0---0------0------------|------------------------|0---0------0------------|
. . . . . .
"Sweet and innocent Sit her down"
[Sweet and innocent]

e|------------------------|------------------------|------------------------|
B|------------------------|------------------------|------------------------|
G|------------------------|------------------------|------------------------|
D|5-----5-----7-----7-----|------------------------|5-----5-----7-----7-----|
A|3-----3-----5-----5-----|--------7----5--0----7--|3-----3-----5-----5-----|
E|------------------------|0---0------0------------|------------------------|
. . .
"Sweet and innocent Pass her a-"
[Sweet and innocent]

e|------------------------|------------------------|
B|------------------------|------------------------|
G|------------------------|------------------------|
D|------------------------|------------------------|
A|7-7-7-7-7-7-7-7-7-7-7-7-|7-7-7-7-7-7-7-7-7-7-5-0-|
E|------------------------|------------------------|
"-round"

e|------------------------|------------------------|------------------------|------------------------|
B|------------------------|------------------------|------------------------|------------------------|
G|------------------------|------------------------|------------------------|------------------------|
D|------------------------|------------------------|------------------------|5-----5-----7-----7-----|
A|--------7----5--0----7--|--------7----5--0----7--|--------7----5--0----7--|3-----3-----5-----5-----|
E|0---0------0------------|0---0------0------------|0---0------0------------|------------------------|
. . . . . . . . .
"Yeah! Sweet and innocent Ohh..."

e|------------------------|------------------------|------------------------|------------------------|
B|------------------------|------------------------|------------------------|------------------------|
G|------------------------|------------------------|------------------------|------------------------|
D|------------------------|------------------------|------------------------|5-----5-----7-----7-----|
A|--------7----5--0----7--|--------7----5--0----7--|--------7----5--0----7--|3-----3-----5-----5-----|
E|0---0------0------------|0---0------0------------|0---0------0------------|------------------------|
. . . . . . . . .
"Sweet and innocent Eh!"

e|------------------------|------------------------|------------------------|------------------------|
B|------------------------|------------------------|------------------------|------------------------|
G|------------------------|------------------------|------------------------|------------------------|
D|------------------------|------------------------|------------------------|5-----5-----------------|
A|--------7----5--0----7--|--------7----5--0----7--|--------7----5--0----7--|3-----3-----5-----5-----|
E|0---0------0------------|0---0------0------------|0---0------0------------|------------3-----3-----|
. . . . . . . .
"Sweet and innocent"

e|------------------------|------------------------|------------------------|------------------------|
B|------------------------|------------------------|------------------------|------------------------|
G|------------------------|------------------------|------------------------|------------------------|
D|------------------------|------------------------|------------------------|----------9-------------|
A|--------7----5--0----7--|--------7----5--0----7--|--------7----5--0----7--|5h7---0---7-------------|
E|0---0------0------------|0---0------0------------|0---0------0------------|----7-----0-------------|
. . . . . . . .
"That's what you're about Eh!"

Enjoy! This is one hell of a fun song to play! Oh, and if there's any mistakes, email me
(email address at top of page);

there's bound to be, 'cause I just figured this out by ear.

Tablature Legend:
. palm mute
h hammeron
p pulloff
|*| |*|
|*| |*|
| |repeat | |
| |measure| |
|*| |*|
|*| |*|

Like us on Facebook.....
-> Loading Time :0.0177 sec