Insect Tabs & Lyrics by Six Feet Under

Insect

guitar tabs lyrics

Six Feet Under

Album : Alive and Dead death metal PlayStop


join the black/death tab mailing list by emailing

SIX FEET UNDER - INSECT
From the album ALIVE AND DEAD EP
Copyright 1996 Metal Blade Records

Version 1.0 - March 1997

Transcribed by: Metal Chris
For Questions, Comments, corrections, please contact me at

carsen2@ibm.net
Metal Chris is a member of 's Death Tab

. - palm mute

Tuning: D, G, C, F, A, D

Intro
|--------------------------------------------------|
|--------------------------------------------------|
|--------------------------------------------------|
|--------------------------------------------------|
|-9------------------------------------------------|
|-7------------------------------------------------|

Riff 1
|-------------------------|
|-------------------------|
|-------------------------|
|-------------------9--10-|
|-9---99---9---99---7--8--|
|-7-0-77-0-7-0-77-0-7--8--|

Riff 2
|----------|
|----------|
|----------|
|---6---4--|
|-5-4-3-2--|
|-3---1----|

Riff 3
|---------------------|
|---------------------|
|---------------------|
|---------------------|
|------7------5----8--|
|-0000-5-0000-3-00-6--|

Play Intro
Play Riff 1 - 8 times
Play Riff 2 - 2 times
Play Riff 1 - 6 times
Play Riff 2 - 4 times
Play Riff 3 - 8 times
Play Riff 2 - 4 times
Play Riff 1 - 4 times
THE END

Like us on Facebook.....
-> Loading Time :0.0092 sec