I Wonder Tabs & Lyrics by Blind Melon

I Wonder

guitar tabs lyrics

Blind Melon

Album : Blind Melon albums i own PlayStop


I Wonder

Chords:
D G C Dm G/B A D5
xx0232 3x0003 032010 000231 02x033 x02220 0133xx

Pre Intro:
G D G C C C
--x-------------x-----x-------------------0-------0---------0------5/------|
--0--3p2---2----3--3--0--3p2---2----------1-------1---------1----3---------|

--0------2---2--2-2---0------2---2------0-0-----0-0--------0----------0----|
--0-------------0-----0----------------2--2----2--2-----0h2---0------------|
--2-------------0-----2---------------3-------3----------------------------|
--3-------------x-----3----------------------------------------------------|

----------------I-------3-3---3-3---3-3------------|I
----------------I-------3-3---1-1---0-0---0-0------|I
--------0-------I-------0-0---0-0---0-0---2-2------|I
------0---------I-------------------------0-0--I---| X4
-2h3------------I----------------------------------|I
------------3---I--------3-----3-----3-----3-------|I

i--------I-----------------5-5---5-5---5------------------5-5---5-5--3-3---3-3---3-3-------------------------|I
I--------I-----3p2----2----5-5---3-3-----------3p2---2----5-5---3-3--3-3---1-1---0-0---0-0-------------------|I
I--------I-2-------2------------------------2------2-----------------0-0---0-0---0-0---2-2-------------------|I
I--------I-----------------------------------------------------------------------------0-0-------------------|I
I------0-I--------------------------------0-------------------------------------------------3-3--2-2--1-1----|I
I--3-----I------------------5-----5------------------------5-----5----3-----3-----3-----3----3----3----3-----|I
G
-------------------------------3-----|I
-------------------------------3-----|I
-----3p2---2-------------------0-----|I
---2-----2-----------------0---0-----|I
---------------3-3--2-2---2----2-----|I
----------------3----3---3-----3-----|I

Like us on Facebook.....
-> Loading Time :0.0349 sec