Outbreak of Evil Tabs & Lyrics by Vader

Outbreak of Evil

guitar tabs lyrics

Vader

Album : Future of the Past death metal PlayStop


Band: Vader
Album: Future of the Past
Song: Outbreak of Evil
by vaderfan
*** ORIGINALLY BY "CARNAL" ***


e--------------------------------|
B--------------------------------|
G--------------------------------|

D--------------------------------|
A--------------------------------|
E--00000022222223333333322222222-|
It's time to die
Death stands behind the doors
Satan sends his warriors
Demons break out of hell
e-------------------------------------|
B-------------------------------------|
G-------------------------------------|
D-----------------------------4m------|
A--2m-5m-7--2m-5m-7--2m-5m-7--2m-5m-7-|
E--0m-3m-5--0m-3m-5--0m-3m-5-----3m-5-|
e---------------------------------|
B---------------------------------|
G---------------------------------|
D---------------------------------|
A--2222220000002222220000---------|
E------------------------33330000-|
Shrill cries Angel dies Shrill cries Outbreak of evil
Repeat Fig.2
Fig.4
e-------------------------------------------------------------|
B-------------------------------------------------------------|
G-------------------------------------------------------------|
D--------------------------2----------------------------------|
A--2222223-5m3m5m3m-222222-0-5-2222223-5m3m5m3m-222222-5------|
E----------------------------3-------------------------3------|
e-------------------------------------------------------------|
B-------------------------------------------------------------|
G-------------------------------------------------------------|
D--------------------------2----------------------------------|
A--2222223-5m3m5m3m-222222-0-5-2222223-5m3m5m3m-222222-5------|
E----------------------------3-------------------------3------|
Fig.5
e---------------------|
B---------------------|
G---------------------|
D---------------------|
A---------------------|
E--000000222222333333-|
With sword and axes They fight hard In a massacre They feel the hot smart
e-------------------------------------|
B-------------------------------------|
G-------------------------------------|
D-------------------------------------|
A--2m-5m-7--2m-5m-7--2m-5m-7--2m-5m-7-|
E--0m-3m-5--0m-3m-5--0m-3m-5--0m-3m-5-|
e---------------------------------|
B---------------------------------|
G---------------------------------|
D---------------------------------|
A--2222220000002222220000---------|
E------------------------33330000-|
Shrill cries Angel dies Shrill cries Outbreak of evil
e-------------------------------------|
B-------------------------------------|
G-------------------------------------|
D-------------------------------------|
A--2m-5m-7--2m-5m-7--2m-5m-7--2m-5m-7-|
E--0m-3m-5--0m-3m-5--0m-3m-5--0m-3m-5-|
Fig.6 solo (podk≥ad):
e-------------------------------------------------------------|
B-------------------------------------------------------------|
G-------------------------------------------------------------|
D--------------------------2----------------------------------|
A--2222223-5m3m5m3m-222222-0-5-2222223-5m3m5m3m-222222-5------|
E----------------------------3-------------------------3------|
e-------------------------------------------------------------|
B-------------------------------------------------------------|
G-------------------------------------------------------------|
D--------------------------2----------------------------------|
A--2222223-5m3m5m3m-222222-0-5-2222223-5m3m5m3m-222222-5------|
E----------------------------3-------------------------3------|
Fig.7:
e---------------------|
B---------------------|
G---------------------|
D---------------------|
A---------------------|
E--000000222222333333-|
None can survive People will destroy Souls like hell Where devils make a toy
e-------------------------------------|
B-------------------------------------|
G-------------------------------------|
D-------------------------------------|
A--2m-5m-7--2m-5m-7--2m-5m-7--2m-5m-7-|
E--0m-3m-5--0m-3m-5--0m-3m-5--0m-3m-5-|
e---------------------------------|
B---------------------------------|
G---------------------------------|
D---------------------------------|
A--2222220000002222220000---------|
E------------------------33330000-|
Shrill cries Angel dies Shrill cries Outbreak of evil
e-------------------------------------|
B-------------------------------------|
G-------------------------------------|
D-------------------------------------|
A--2m-5m-7--2m-5m-7--2m-5m-7--2m-5m-7-|
E--0m-3m-5--0m-3m-5--0m-3m-5--0m-3m-5-|
Repeat Fig.6 (obie gitary)
(epilog)
e-------------------------|
B-------------------------|
G-------------------------|
D-------------------------|
A---------------------2---|
E--000000222222333333-0---|
(end)

Like us on Facebook.....
-> Loading Time :0.0107 sec