Witch Tabs & Lyrics by Belly

Witch

guitar tabs lyrics

Belly

Album : Star 1993 PlayStop




#----------------------------------PLEASE NOTE---------------------------------#
#This file is the author's own work and represents their interpretation of the #
#song. You may only use this file for private study, scholarship, or research. #
#------------------------------------------------------------------------------#

Date: Sun, 5 Jan 1997 01:29:02 -0800
From: Larry Secrest
Subject: TAB: 'Witch' by Belly

e -----------------------------------------------------------|
B -----------------------------------------------------------|
G -------------------0-----0------------------0----0---------|
D ------0-----0----2-----2-------0-----0----2-----2----------|
A ----2-----2----3-----3-------2-----2----3-----3------------|
E --3-----3------------------3-----3-------------------------|

e -----------------------------------------------------------|
B -----------------------------------------------------------|
G -------------------0-----0---------------------------------|
D ------0-----0----2-----2-------0-----0-----0-----0---------|
A ----2-----2----3-----3-------2-----2-----2-----2-----------|
E --3-----3------------------3-----3-----3-----3-------------|

e -----------------------------------------------------------|
B -----------------------------------------------------------|
G ------0-----0-----0----0-----2-----2-----7-----7-----------|
D ----2-----2-----2-----2----2-----2-----7-----7-------------|
A --3-----3-----3-----3----0-----0-----5-----5---------------|
E -----------------------------------------------------------|

e -----------------------------------------------------------|
B -----------------------------------------------------------|
G ------2-----2-----7----7-----2-----2-----7-----7-----------|
D ----2-----2-----7-----7----2-----2-----7-----7-------------|
A --0-----0-----5-----5----0-----0-----5-----5---------------|
E -----------------------------------------------------------|

e -----------------------------------------------------------|
B -----------------------------------------------------------|
G ------2-----2-----2-----2-----2-----1-----2-----1----------|
D ----2-----2-----2-----2-----2-----2-----2-----2------------|
A --0-----0-----0-----0-----0-----0-----0-----0--------------|
E -----------------------------------------------------------|

e -----------------------------------------------------------|
B -----------------------------------------------------------|
G ------2-----2p1---1-----2-----2p1---1-----2-----2p1---1----|
D ----2-----2-----2-----2-----2-----2-----2-----2-----2------|
A --0-----0-----0-----0-----0-----0-----0-----0-----0--------|
E -----------------------------------------------------------|

Repeat this last part for a while until. . .

e ----------|
B ----------|
G --2-1-0---|
D ----------|
A ----------|
E ----------|

e ----------------------------------------------------------------|
B ----------------------------------------------------------------|
G --------------------0-----0------------------0-----0------------|
D -------0-----0^?---2-----2-------0-----0^?---2-----2------------|
A -----2-----2^?---3-----3-------2-----2----3-----3---------------|
E ---3-----3------------------3-----3-----------------------------|

And repeat this part to the end. :)


Lyrics:
You^?re not safe
In this house
You^?re not safe
Here
Here
In some witch^?s bed
In some witch^?s bed
You know
You want
She lies all lit up
She lies all lit up
She lies all lit up
You^?re not safe
In this house

Like us on Facebook.....
-> Loading Time :0.0079 sec