Someone to Die For Tabs & Lyrics by Belly

Someone to Die For

guitar tabs lyrics

Belly

Album : Star 1993 PlayStop


om: faureyti@news.enst.fr (Laurent Faureytier)
Reply-To: faureytier@cal.enst.fr
Date: Tue, 24 May 1994 18:02:04 GMT

Someone to die for
Belly

-----0-----0--------------------------|
-------0-----0------0---0---0---------| repeat 3x, then the 4th time play...
--------------------------------------|
---7-----7--------4---5---6---7-------|

--------------------------------------|
--------------------------------------|

let ring
-----0-----0-----------------------------------------|
-------0-----0------0---0---0----7--(7)-----7-----0--|
---------------------------------7--(7)--7-----0-----|
---7-----7-----7--4---5---6---7----------------------|
-----------------------------------------------------|
-----------------------------------------------------|

Then repeat the whole thing for the duration of the song basically...

Like us on Facebook.....
-> Loading Time :0.0095 sec