Unto Others Tabs & Lyrics by At the Gates

Unto Others

guitar tabs lyrics

At the Gates

Album : Slaughter of the Soul melodic death metal PlayStop




UNTO OTHERS
As recorded by At the Gates
(From the 1995 Album SLAUGHTER OF THE SOUL)

Transcribed by Skeletor


Words by Tomas Lindberg Music by Bj�rler/Bj�rler/At the Gates

Gtr I (B E A D Gb B) - 'Untitled'
Gtr II (B E A D Gb B) - 'Untitled'
Gtr III (B E A D Gb B) - 'Untitled'
Gtr IV (B E A D Gb B) - 'Untitled'

Intro (verse riff)
Q.=150
N.C.
12/8
Gtrs I, II
PM------------| PM------------|
E E E E E E E S S E E S S E E E E E E E E S S E E S S E 4x
||------------------------------|------------------------------||
||o-----------------------------|-----------------------------o||
||------------------------------|------------------------------||
||----7-6-----------------------|---7-6------------------------||
||o-8-----7-8-5-----------------|-8-----7-8-5-8-8-8-8-8-8-8-8-o||
||--------------0-0-0-0-0-0-0-0-|------------------------------||


PM| PM| PM| PM| PM| PM|
E E E E E E E E E E E E E E E E E E E E E E E E
|-------------------------|-------------------------|
|-------------------------|-------------------------|
|-------------------------|-------------------------|
|-------------------6-5---|-------------------6-5---|
|-7-----7-----7---------8-|-7-----7-----7---------8-|
|---0-0---0-0---0-0-------|---0-0---0-0---0-0-------|


E5
PM| PM| PM| PM| PM|
E E E E E E E E E E E E E E E E E E E E E Q.
|-------------------------|-------------------------|
|-------------------------|-------------------------|
|-------------------------|-------------------------|
|-------------------6-5---|-------------------9-----|
|-7-----7-----7---------8-|-7-----7-----7h8p7-7-----|
|---0-0---0-0---0-0-------|---0-0---0-0-------------|


$
(E) (F)
Gtr I
PM| PM| PM| PM| PM| PM|
E E E E E E E E E E E E E E E E E E E E E E E E
||---------------------------|---------------------------|
||o--------------------------|---------------------------|
||---------------------------|---------------------------|
||---------------------6-5---|---------------------6-5---|
||o-7------7-----7---------7-|--8------8-----8---------8-|
||-----0-0---0-0---0-0-------|-----0-0---0-0---0-0-------|
|
| Gtr II
| W. W.
||---------------------------|---------------------------|
||o--------------------------|---------------------------|
||--9------------------------|-10------------------------|
||---------------------------|---------------------------|
||o-7------------------------|--8------------------------|
||---------------------------|---------------------------|


(E) (D)
PM| PM| PM| PM| ~~ PM| ~~
E E E E E E E E E E E E E E E Q. E E E Q.
|--------------------------|--------------------------||
|--------------------------|-------------------------o||
|--------------------------|--------------------------||
|--------------------6-5---|-5------5-----------------||
|-7------7-----7---------7-|-------------8-----8-----o||
|----0-0---0-0---0-0-------|----0-0--------0-0--------||
|
| W. W.
|--------------------------|--------------------------||
|--------------------------|-------------------------o||
|-9------------------------|-7------------------------||
|--------------------------|--------------------------||
|-7------------------------|-5-----------------------o||
|--------------------------|--------------------------||


Verse
N.C.
Gtrs I, II
PM------------| PM------------|
E E E E E E E S S E E S S E E E E E E E E S S E E S S E 4x
||------------------------------|------------------------------||
||o-----------------------------|-----------------------------o||
||------------------------------|------------------------------||
||----7-6-----------------------|---7-6------------------------||
||o-8-----7-8-5-----------------|-8-----7-8-5-8-8-8-8-8-8-8-8-o||
||--------------0-0-0-0-0-0-0-0-|------------------------------||


Chorus
$$
(C)
Gtr I
E E E E E E E E E E E E E E E E E E E E E E E E
|-------------------------------|---------------------------------|
|-8-8---8-5-5---5-0-0---0-8-8-8-|---------------------------------|
|-------------------------------|-8-8---8-5-5---5--0--0-0---------|
|-------------------------------|---------------------------------|
|-------------------------------|--------------------------6--6-6-|
|-------------------------------|---------------------------------|
|
| Gtr II
| PM----| PM--| PM--| PM----| PM--|
| E S S E E S S E E S S E E E E E S S E E S S E Q. Q.
|-------------------------------|---------------------------------|
|-------------------------------|---------------------------------|
|-------------------------------|---------------------------------|
|-------------------------------|-----------------10------10------|
|---------7-------9-------6h7h9-|---------6-----------------------|
|-0-0-0-0---0-0-0---0-0-0-------|-8-8-8-8---8-8-8--8-------8------|


(B) (G) (F#)
~~
E E E E E E E E E E E E E E E E E E H.
|-------------------------------|---------------------|
|-8-8---8-5-5---5-0-0---0-8-8-8-|-7--7-7-8--8-8-------|
|-------------------------------|---------------4-----|
|-------------------------------|---------------------|
|-------------------------------|---------------------|
|-------------------------------|---------------------|
|
| PM----| PM--| PM--|
| E S S E E S S E E S S E E E E Q. Q. H.
|-------------------------------|---------------------|
|-------------------------------|---------------------|
|-------------------------------|---------------------|
|-------------------------------|-9------5------4-----|
|---------7-------9-------6h7h9-|---------------------|
|-0-0-0-0---0-0-0---0-0-0-------|-7------3------2-----|


(C)
E E E E E E E E E E E E E E E E E E E E E E E E
|-------------------------------|---------------------------------|
|-8-8---8-5-5---5-0-0---0-8-8-8-|---------------------------------|
|-------------------------------|-8-8---8-5-5---5--0--0-0---------|
|-------------------------------|---------------------------------|
|-------------------------------|--------------------------6--6-6-|
|-------------------------------|---------------------------------|
|
| PM----| PM--| PM--| PM----| PM--|
| E S S E E S S E E S S E E E E E S S E E S S E Q. Q.
|-------------------------------|---------------------------------|
|-------------------------------|---------------------------------|
|-------------------------------|---------------------------------|
|-------------------------------|-----------------10------10------|
|---------7-------9-------6h7h9-|---------6-----------------------|
|-0-0-0-0---0-0-0---0-0-0-------|-8-8-8-8---8-8-8--8-------8------|


D.S.
D.S.
D5
~~
E E E E E E E E E E E E E E E E E E H.
|-------------------------------|----------------------|
|-8-8---8-5-5---5-0-0---0-8-8-8-|-7--7-7-8--8-8--------|
|-------------------------------|---------------4------|
|-------------------------------|----------------------|
|-------------------------------|----------------------|
|-------------------------------|----------------------|
|
| PM----| PM--| PM--|
| E S S E E S S E E S S E E E E Q. Q. H.
|-------------------------------|----------------------|
|-------------------------------|----------------------|
|-------------------------------|----------------------|
|-------------------------------|-7------7------7------|
|---------7-------9-------6h7h9-|-5------5------5------|
|-0-0-0-0---0-0-0---0-0-0-------|----------------------|


N.C.
Gtrs I, II
PM----| PM--| PM--| PM----| PM--|
E S S E E S S E E S S E E E E E S S E E S S E E E E E E E
|-------------------------------|----------------------------------|
|-------------------------------|----------------------------------|
|-------------------------------|----------------------------------|
|-------------------------------|-------------------------12-------|
|---------7-------9-------6h7h9-|---------6------------10----10----|
|-0-0-0-0---0-0-0---0-0-0-------|-8-8-8-8---8-8-8-8h11----------11-|


PM----| PM--| PM--| PM--------------------|
E S S E E S S E E S S E E E E E E E E E E E E E E E E
|-------------------------------|-------------------------|
|-------------------------------|-------------------------|
|-------------------------------|-------------------------|
|-------------------------------|-------------------------|
|---------7-------9-------6h7h9-|-------------------------|
|-0-0-0-0---0-0-0---0-0-0-------|-7-7-7-3-3-3-2-2-2-2-2-2-|


PM----| PM--| PM--| PM----| PM--|
E S S E E S S E E S S E E E E E S S E E S S E E E E E E E
|-------------------------------|----------------------------------|
|-------------------------------|----------------------------------|
|-------------------------------|----------------------------------|
|-------------------------------|-------------------------12-------|
|---------7-------9-------6h7h9-|---------6------------10----10----|
|-0-0-0-0---0-0-0---0-0-0-------|-8-8-8-8---8-8-8-8h11----------11-|


PM----| PM--| PM--|
E S S E E S S E E S S E E E E Q. Q. H.
|-------------------------------|-----------------|
|-------------------------------|-----------------|
|-------------------------------|-----------------|
|-------------------------------|-9----5----4-----|
|---------7-------9-------6h7h9-|-----------------|
|-0-0-0-0---0-0-0---0-0-0-------|-7----3----2-----|


Guitar Solo
E5 (C)
Gtr I
PM--| PM--| PM--| PM--|
Q E E E E Q E E E E Q E E E E Q E E E E
||--------------------------|-------------------------|
||o-------------------------|-------------------------|
||--------------------------|-------------------------|
||--2-----------2-----------|-------------------------|
||o-2-----------2-----------|-------------------------|
||--0---0-0-0-0-0---0-0-0-0-|-8---8-8-8-8-8---8-8-8-8-|
|
| Gtr II
| E E E E E E E E E E E E E E E E E E E E E E E E
||--------------------------|-------------------------|
||o-8-5-0-8-5-0-8-5-0-8-5-0-|-------------------------|
||--------------------------|-8-5-0-8-5-0-8-5-0-8-5-0-|
||--------------------------|-------------------------|
||o-------------------------|-------------------------|
||--------------------------|-------------------------|


(G) (B)
PM--| PM--| PM--| PM--|
Q E E E E Q E E E E Q E E E E Q E E E E
|-------------------------|----------------------------||
|-------------------------|---------------------------o||
|-------------------------|----------------------------||
|-5---5-5-5-5-5---5-5-5-5-|-9---9-9-9-9-9---9-9-9-9----||
|-------------------------|---------------------------o||
|-3---3-3-3-3-3---3-3-3-3-|-7---7-7-7-7-7---7-7-7-7----||
|
| E E E E E E E E E E E E E E E E E E E E E E E E
|-------------------------|-------------5-----7--------||
|-8-5-0-8-5-0-8-5-0-8-5-0-|-7-4-0-8-5-0---7-0---8-0---o||
|-------------------------|----------------------------||
|-------------------------|----------------------------||
|-------------------------|---------------------------o||
|-------------------------|----------------------------||


Acoustic Break
Em Cm
Gtr III
W. W.
|-^7-------------------|-----------------------|
|-^8-------------------|-^-8-------------------|
|-^9-------------------|-^-8-------------------|
|-^9-------------------|-^10-------------------|
|-^7-------------------|-^10-------------------|
|-^0-------------------|-^-8-------------------|
|
| Gtr IV
| Q. Q. Q. Q. Q. Q. Q. Q.
|----------------------|-----------------------|
|--8----5----0----8----|-----------------------|
|----------------------|---8----5----0---------|
|----------------------|-----------------------|
|----------------------|------------------6----|
|----------------------|-----------------------|


Em N.C.
Gtr I
PM PM PM PM
W. E E E E E E E E E E E E
|-----------------------|----------------------------|
|-----------------------|----------------------------|
|-^-9-------------------|----------------------------|
|-^-9-------------------|-5-----4-----5-----4--------|
|-^10-------------------|---2-----2-----2-----2------|
|-----------------------|-----0-----0-----0-----0----|
|
| Gtr II
| PM PM PM PM
| Q. Q. Q. Q. E E E E E E E E E E E E
|-----------------------|----------------------------|
|---8----5----0----8----|----------------------------|
|-----------------------|----------------------------|
|-----------------------|-5-----4-----5-----4--------|
|-----------------------|---2-----2-----2-----2------|
|-----------------------|-----0-----0-----0-----0----|


Em Cm
Gtr III
W. W.
|-^7-------------------|-----------------------|
|-^8-------------------|-^-8-------------------|
|-^9-------------------|-^-8-------------------|
|-^9-------------------|-^10-------------------|
|-^7-------------------|-^10-------------------|
|-^0-------------------|-^-8-------------------|
|
| Gtr IV
| Q. Q. Q. Q. Q. Q. Q. Q.
|--7-------------------|-----------------------|
|-------8----5---------|-----------------------|
|-----------------4----|-----------------------|
|----------------------|---5----2--------------|
|----------------------|-------------2---------|
|----------------------|------------------3----|


Em N.C. E5
Gtr I
PM PM PM PM
W. E E E E E E E E E E E E Q. Q. H.
|-----------------|-------------------------|-----------------|
|-----------------|-------------------------|-----------------|
|-^-9-------------|-------------------------|-----------------|
|-^-9-------------|-5-----4-----5-----4-----|-2---------------|
|-^10-------------|---2-----2-----2-----2---|-2---------------|
|-----------------|-----0-----0-----0-----0-|-0---------------|
|
| Gtr II
| PM PM PM PM
| W. E E E E E E E E E E E E Q. Q. H.
|-----------------|-------------------------|-----------------|
|-^12-------------|-------------------------|-----------------|
|-^-9-------------|-------------------------|-----------------|
|-^-9-------------|-5-----4-----5-----4-----|-2---------------|
|-----------------|---2-----2-----2-----2---|-2---------------|
|-----------------|-----0-----0-----0-----0-|-0---------------|


N.C.
PM| PM| PM| PM| PM| PM| PM| PM|
E E E E E E E E E E E E E E E E E E E E E E E E
|-------------------------|-------------------------|
|-------------------------|-------------------------|
|-------------------------|-------------------------|
|-7-----7-----7-----7-----|-------------------------|
|-------------------------|-6-----6-----6-----6-----|
|---5-5---5-5---5-5---5-5-|---2-2---2-2---2-2---2-2-|
|
| PM| PM| PM| PM| PM| PM| PM| PM|
| E E E E E E E E E E E E E E E E E E E E E E E E
|-------------------------|-------------------------|
|-------------------------|-------------------------|
|-------------------------|-------------------------|
|-7-----7-----7-----7-----|-------------------------|
|-------------------------|-6-----6-----6-----6-----|
|---5-5---5-5---5-5---5-5-|---2-2---2-2---2-2---2-2-|


PM| PM| PM| PM| PM| PM| PM PM
E E E E E E E E E E E E E E E E E E E E E E E E
|-------------------------|----------------------------|
|-------------------------|----------------------------|
|-------------------------|----------------------------|
|-5-----5-----5-----4-----|-2-----2-----5-----4--------|
|---2-2---2-2---2-2---2-2-|---------------2-----2------|
|-------------------------|---0-0---0-0-----0-----0----|
|
| PM| PM| PM| PM| PM| PM| PM PM
| E E E E E E E E E E E E E E E E E E E E E E E E
|-------------------------|----------------------------|
|-------------------------|----------------------------|
|-------------------------|----------------------------|
|-9-----9-----9-----9-----|-------------5-----4--------|
|-------------------------|-7-----7-------2-----2------|
|---7-7---7-7---7-7---7-7-|---0-0---0-0-----0-----0----|


PM| PM| PM| PM| PM| PM| PM| PM|
E E E E E E E E E E E E E E E E E E E E E E E E
|-------------------------|-------------------------|
|-------------------------|-------------------------|
|-------------------------|-------------------------|
|-7-----7-----7-----7-----|-------------------------|
|-------------------------|-6-----6-----6-----6-----|
|---5-5---5-5---5-5---5-5-|---2-2---2-2---2-2---2-2-|
|
| PM| PM| PM| PM| PM| PM| PM| PM|
| E E E E E E E E E E E E E E E E E E E E E E E E
|-------------------------|-------------------------|
|-------------------------|-------------------------|
|-------------------------|-------------------------|
|-7-----7-----7-----7-----|-------------------------|
|-------------------------|-6-----6-----6-----6-----|
|---5-5---5-5---5-5---5-5-|---2-2---2-2---2-2---2-2-|


PM| PM| PM| PM| ~~ PM PM
E E E E E E E E E E E E H. E E E E E E
|-------------------------|------------------------|
|-------------------------|------------------------|
|-------------------------|------------------------|
|-5-----5-----5-----4-----|---------5-----4--------|
|---2-2---2-2---2-2---2-2-|-7---------2-----2------|
|-------------------------|-------------0-----0----|
|
| PM| PM| PM| PM| ~~ PM PM
| E E E E E E E E E E E E H. E E E E E E
|-------------------------|------------------------|
|-------------------------|------------------------|
|-------------------------|------------------------|
|-9-----9-----9-----9-----|---------5-----4--------|
|-------------------------|-7---------2-----2------|
|---7-7---7-7---7-7---7-7-|-------------0-----0----|


Bridge
N.C.
H. +Q. Q. H. +Q. Q.
|---------------------|---------------------|
|---------------------|---------------------|
|---------------------|-8-------(8)---------|
|-7-------(7)---10----|---------------10----|
|---------------------|-6-------(6)---------|
|-5-------(5)----8----|----------------8----|
|
| H. +Q. Q. H. +Q. Q.
|---------------------|---------------------|
|---------------------|---------------------|
|---------------------|---------------------|
|-7-------(7)----7----|-4-------(4)----4----|
|---------------------|---------------------|
|-5-------(5)----5----|-2-------(2)----2----|


E5
PM PM
H. +Q. Q. H. E E E E E E
|--------------------|------------------------|
|--------------------|------------------------|
|--------------------|------------------------|
|-9-------(9)---5----|-2-------5-----4--------|
|--------------------|-2---------2-----2------|
|-7-------(7)---3----|-0-----------0-----0----|
|
| PM PM
| H. +Q. Q. H. E E E E E E
|--------------------|------------------------|
|--------------------|------------------------|
|--------------------|------------------------|
|-5-------(5)---5----|-2-------5-----4--------|
|--------------------|-2---------2-----2------|
|-3-------(3)---3----|-0-----------0-----0----|


N.C.
Gtr I
H. +Q. Q. H. +Q. Q.
|---------------------|---------------------|
|---------------------|---------------------|
|---------------------|-8-------(8)---------|
|-7-------(7)---10----|---------------10----|
|---------------------|-6-------(6)---------|
|-5-------(5)----8----|----------------8----|
|
| Gtr II
| H. +Q. Q. H. +Q. Q.
|---------------------|---------------------|
|---------------------|---------------------|
|---------------------|---------------------|
|-7-------(7)----7----|-4-------(4)----4----|
|---------------------|---------------------|
|-5-------(5)----5----|-2-------(2)----2----|


D.S.S. al Coda
E5
PM PM
H. +Q. Q. H. E E E E E E
|--------------------|------------------------|
|--------------------|------------------------|
|--------------------|------------------------|
|-9-------(9)---5----|-2-------5-----4--------|
|--------------------|-2---------2-----2------|
|-7-------(7)---3----|-0-----------0-----0----|
|
| ~~ PM PM
| H. +Q. Q. H. E E E E E E
|--------------------|------------------------|
|--------------------|------------------------|
|--------------------|------------------------|
|-5-------(5)---5----|---------5-----4--------|
|--------------------|-----------2-----2------|
|-3-------(3)---3----|-7-----------0-----0----|


Outro
&
N.C.
Gtrs I, II
PM| PM| PM| PM| PM| PM|
E E E E E E E E E E E E E E E E E E E E E E E E
||--------------------------|-------------------------|
||o-------------------------|-------------------------|
||--------------------------|-------------------------|
||--------------------6-5---|-------------------6-5---|
||o-7-----7-----7---------8-|-7-----7-----7---------8-|
||----0-0---0-0---0-0-------|---0-0---0-0---0-0-------|


E5
PM| PM| PM| PM| PM|
E E E E E E E E E E E E E E E E E E E E E Q.
|-------------------------|--------------------------||
|-------------------------|-------------------------o||
|-------------------------|--------------------------||
|-------------------6-5---|-------------------9------||
|-7-----7-----7---------8-|-7-----7-----7h8p7-7-----o||
|---0-0---0-0---0-0-------|---0-0---0-0--------------||


(E) (F)
Gtr I
PM| PM| PM| PM| PM| PM|
E E E E E E E E E E E E E E E E E E E E E E E E
|--------------------------|---------------------------|
|--------------------------|---------------------------|
|--------------------------|---------------------------|
|--------------------6-5---|---------------------6-5---|
|-7------7-----7---------7-|--8------8-----8---------8-|
|----0-0---0-0---0-0-------|-----0-0---0-0---0-0-------|
|
| Gtr II
| W. W.
|--------------------------|---------------------------|
|--------------------------|---------------------------|
|-9------------------------|-10------------------------|
|--------------------------|---------------------------|
|-7------------------------|--8------------------------|
|--------------------------|---------------------------|


(E) (D)
PM| PM| PM| PM| ~~ PM| ~~
E E E E E E E E E E E E E E E Q. E E E Q.
|--------------------------|-------------------------|
|--------------------------|-------------------------|
|--------------------------|-------------------------|
|--------------------6-5---|-5------5----------------|
|-7------7-----7---------7-|-------------8-----8-----|
|----0-0---0-0---0-0-------|----0-0--------0-0-------|
|
| W. W.
|--------------------------|-------------------------|
|--------------------------|-------------------------|
|-9------------------------|-7-----------------------|
|--------------------------|-------------------------|
|-7------------------------|-5-----------------------|
|--------------------------|-------------------------|


(E) (F)
PM| PM| PM| PM| PM| PM|
E E E E E E E E E E E E E E E E E E E E E E E E
|--------------------------|---------------------------|
|--------------------------|---------------------------|
|--------------------------|---------------------------|
|--------------------6-5---|---------------------6-5---|
|-7------7-----7---------7-|--8------8-----8---------8-|
|----0-0---0-0---0-0-------|-----0-0---0-0---0-0-------|
|
| W. W.
|--------------------------|---------------------------|
|--------------------------|---------------------------|
|-9------------------------|-10------------------------|
|--------------------------|---------------------------|
|-7------------------------|--8------------------------|
|--------------------------|---------------------------|


(E) D5 E5
PM| PM| PM|
E E E E E E E E E E E E H. H. E E E Q. H.
|--------------------------|------------------|------------------*|
|--------------------------|-8----------------|------------------*|
|--------------------------|---------10-------|------------------*|
|--------------------6-5---|-5----------------|-9-9-9-9----------*|
|-7------7-----7---------7-|----------8-------|-7-7-7-7\---------*|
|----0-0---0-0---0-0-------|------------------|------------------*|
|
| W. H. H. E E E Q. H.
|--------------------------|------------------|------------------*|
|--------------------------|------------------|------------------*|
|-9------------------------|------------------|------------------*|
|--------------------------|-7--------7-------|-9-9-9-9\---------*|
|-7------------------------|-5--------5-------|-7-7-7-7----------*|
|--------------------------|------------------|------------------*|



Duration Legend
---------------
W - whole; H - half; Q - quarter; E - 8th; S - 16th; T - 32nd; X - 64th; a - acciaccatura
+ - note tied to previous; . - note dotted; .. - note double dotted
Uncapitalized letters represent notes that are staccato (1/2 duration)
Irregular groupings are notated above the duration line
Duration letters will always appear directly above the note/fret number it represents the
duration for. Duration letters with no fret number below them represent rests. Multi-
bar rests are notated in the form Wxn, where n is the number of bars to rest for. Low
melody durations appear below the staff

Tablature Legend
----------------
h - hammer-on
p - pull-off
b - bend
pb - pre-bend
r - bend release (if no number after the r, then release immediately)
/\ - slide into or out of (from/to "nowhere")
s - legato slide
S - shift slide
- natural harmonic
[n] - artificial harmonic
n(n) - tapped harmonic
~ - vibrato
tr - trill
T - tap
TP - trem. picking
PM - palm muting
\n/ - tremolo bar dip; n = amount to dip
\n - tremolo bar down
n/ - tremolo bar up
/n\ - tremolo bar inverted dip
= - hold bend; also acts as connecting device for hammers/pulls
- volume swell (louder/softer)
x - on rhythm slash represents muted slash
o - on rhythm slash represents single note slash

Misc Legend
-----------
| - bar
|| - double bar
||o - repeat start
o|| - repeat end
*| - double bar (ending)
: - bar (freetime)
$ - Segno
& - Coda
Tempo markers - = BPM(8/16=s8/s16), where s8 = swing 8ths, s16 = swing 16ths



Like us on Facebook.....
-> Loading Time :0.0096 sec