Feasting on the Blood of the Insane Tabs & Lyrics by Six Feet Under

Feasting on the Blood of the Insane

guitar tabs lyrics

Six Feet Under

Album : Maximum Violence death metal PlayStop



SIX FEET UNDER - FEASTING ON THE BLOOD OF THE INASANE
From the Album - MAXIMUM VIOLENCE
Copyright - METAL BLADE 1999
Version 2.0 Jan 15, 2003


Transcribed by: James Williams (Inverted)

For Questions, Comments, Newest Version, or Corrections contact
Inverted: at Inverted_one@hotmail.com


Check Out Death8699.com Metaltabs.com or dsrmusic.com for More
Transcriptions:http://www.Death8699.com http://www.Metaltabs.com
http://www.dsrmusic.com/metaltab

. - palm mute / - slide up to
\ - slide down to ~ - vibrato
h - hammer on b - Bend
p - pull off Suffixes for bend
t - tap f - full bend h - half bend
ph - pinched harmonic q - quarter bend t - tap bend
* - see comment ^ - Hold bend r release bend
x - Rest ~ - vibrato bend
, - slight palm mute () - ghost note, sustained note
" - tremolo note - Trill

Tuning: "C"F"A#"D#"G"C"


Intro
|-------------------------------------------------------------------|
|-------------------------------------------------------------------|
|-------------------3-----------------------------------------------|
|--2----------------1----------------2----------------3-------------|
|--2----------------1----------------2----------------1-------------|
|--0---------------------------------0----------------1-------------|


Riff 1-A
|-------------------------------------------------------------------|
|-------------------------------------------------------------------|
|-------------------------------------------------------------------|
|-------------------------------------------------------------------|
|--2--\(7)-7----6-------2-------3---------------2-------1-----|
|--0---------------------------------------1------------------------|


Riff 1-B
|-------------------------------------------------------------------|
|-------------------------------------------------------------------|
|-------------------------------------------------------------------|
|---------------------------------------------------------4----3----|
|--2--\(7)-7----6-------2-------3-------2----4----5----2----1----|
|--0---------------------------------------0----2----3--------------|


Riff 2-A
|---------------------------------------------------|
|---------------------------------------------------|
|---------------------------------------------------|
|--2------------2------------5------------6----3----|
|--2------------2------------5------------6----3----|
|--0----0-0-0-0-0----0-0-0-0-3----0-0-0-0-4----1----|
. . . . . . . . . . . .

Riff 2-B
|---------------------------------------------------|
|---------------------------------------------------|
|---------------3-----------------------------------|
|--2------------3------------5------------6----3----|
|--2------------1------------5------------6----3----|
|--0----0-0-0-0------0-0-0-0-3----0-0-0-0-4----1----|
. . . . . . . . . . . .

Fill 1
|------------------------------|
|------------------------------|
|------------------------------|
|------7------8------5------3--|
|------7------8------5------3--|
|--0-0-5--0-0-6--0-0-3--0-0-1--|
. . . . . . . .

Riff 3-A
|---------------------------------------------------------|
|---------------------------------------------------------|
|---------------------------------------------------------|
|--2----------5------2------3----------2------5------2\3--|
|--2----------5------2------3----------2------5------2\3--|
|--0--0-0-0-0-3--0-0-0--0-0-1--0-0-0-0-0--0-0-3--0-0-0\1--|
. . . . . . . . . . . . . . . .

Riff 3-B
|---------------------------------------------------------|
|---------------------------------------------------------|
|----------------------------------------------5----------|
|--3----------5------2------3-----------2------3-----5----|
|--3----------5------2------3-----------2------3-----3----|
|--1--0-0-0-0-3--0-0-0--0-0-1--0-0-0-0--0--0-0-------3----|
. . . . . . . . . . . . . .

Riff 4
|--------------------------------------------------------------------|
|--------------------------------------------------------------------|
|--------------------------------------------------------------------|
|--------------------------------------------------------------------|
|------------------5555555555555555----------------3333333333333333--|
|--3333333333333333----------------2222222222222222------------------|
................................................................

Riff 1-A Gtr I
|-------------------------------------------------------------------|
|-------------------------------------------------------------------|
|-------------------------------------------------------------------|
|-------------------------------------------------------------------|
|--2--\(7)-7----6-------2-------3---------------2-------1-----|
|--0---------------------------------------1------------------------|
| |
| Gtr II|
|-------------------------------------------------------------------|
|-------------------------------------------------------------------|
|-----\(9)-9----8-------4-------5---------------4-------3-----|
|------------------------------------------3------------------------|
|--2----------------------------------------------------------------|
|--0----------------------------------------------------------------|


Riff 1-B Gtr I
|-------------------------------------------------------------------|
|-------------------------------------------------------------------|
|-------------------------------------------------------------------|
|---------------------------------------------------------4----3----|
|--2--\(7)-7----6-------2-------3-------2----4----5----2----1----|
|--0---------------------------------------0----2----3--------------|
| |
| Gtr II|
|-------------------------------------------------------------------|
|-------------------------------------------------------------------|
|-----\(9)-9----8-------4-------5--------------------------------|
|---------------------------------------------------------4----3----|
|--2---------------------------------------2----4----5----2----1----|
|--0---------------------------------------0----2----3--------------|


End
|-----------|
|-----------|
|-----------|
|--2--------|
|--2--------|
|--0--------|

Like us on Facebook.....
-> Loading Time :0.0252 sec