Snakes Tabs & Lyrics by Six Feet Under

Snakes

guitar tabs lyrics

Six Feet Under

Album : True Carnage death metal PlayStop



Band: Six Feet Under
Song: Snakes
Album: True Carnage

Tabbed by: Thomas Klopf
Email: [email protected]
Date: 25. June 2002
-----------------------------------------------------------------
For the first riff please listen to the CD, it's hard to write
the used pattern down.

Corrections are welcome!
-----------------------------------------------------------------
Tuning: 1.5 steps down (Db, Cb, ...)

Riff 1
|------------------------|---------------------------------------|
|------------------------|---------------------------------------|
|------------------------|---------------------------------------|
|------------------------|---------------------------------------|
|------------2--------5--|----2--------------2--------6-----2----|
|-000000--0000000-00003--|-0000000-00000--0000000-00004--0000000-|
...... ....... .... ....... ..... ........ .... .......

Riff 2
|---------------|----------------|---------------------------|
|---------------|----------------|---------------------------|
|---------------|----------------|---------------------------|
|---------------|----------------|---------------------------|
|----3-5--4-5-4-|----3-5--4-5-43-|----3-5--4-5-4-2-2-2-2-4-3-|
|-0--1-3--2-3-2-|-0--1-3--2-3-21-|-0--1-3--2-3-2-0-0-0-0-2-1-|
. . . . . . . . . . . . . . . . . . . . . . . .

Riff 3
|---------------|
|---------------|
|---------------|
|---------------|
|-2---3---6---5-|
|-0---1---4---3-|

Outro
|-----------------|
|-----------------|
|-----------------|
|-----------------|
|----3-5--4-5-3-2-|
|-0--1-3--2-3-1-0-|
. . . . . .

Song structure
~~~~~~~~~~~~~~
Riff 1 - 3x
Riff 2 - 2x
Riff 1 - 2x
Riff 2 - 2x
Riff 3 - 4x
Riff 2 - 3x
Riff 1 - 4x
Outro

Have fun!

Like us on Facebook.....
-> Loading Time :0.0077 sec