Lycanthropy Tabs & Lyrics by Six Feet Under

Lycanthropy

guitar tabs lyrics

Six Feet Under

Album : Maximum Violence (bonus disc: Recorded Live on Tour Oct. 1999)PlayStop



Tabbed by:THE SANDMAN
Email:ryan5@iamwasted.com



Tuning:"D"G"C"F"A"D"

Riff 1
|------------------------------------------------------------------
|------------------------------------------------------------------

|------------------------------------------------------------------
|-2-2-2-2x--2-2-2-2x--2-2-2-2-2-2-2-2x--2-2-2-2x--2-2-2-2-3-3-3-3x-
|-2-2-2-2x--2-2-2-2x--2-2-2-2-2-2-2-2x--2-2-2-2x--2-2-2-2-3-3-3-3x-
|-0-0-0-0x--0-0-0-0x--0-0-0-0-0-0-0-0x--0-0-0-0x--0-0-0-0-1-1-1-1x-

-------------------------------------------------|
-------------------------------------------------|
-------------------------------------------------|
-3-3-3-3x--3-3-3-3-6-6-6-6x--6-6-6-6x--6-6-6-6x--|
-3-3-3-3x--3-3-3-3-6-6-6-6x--6-6-6-6x--6-6-6-6x--|
-1-1-1-1x--1-1-1-1-4-4-4-4x--4-4-4-4x--4-4-4-4x--|


|-----------------------------------------------------------
|-----------------------------------------------------------
|-----------------------------------------------------------
|--2-2-2--2-2--2--2-2--2-2-2-2--2-2-2--2-2--2--2-2--2-2-2-2-
|--2-2-2--2-2--2--2-2--2-2-2-2--2-2-2--2-2--2--2-2--2-2-2-2-
|--0-0-0--0-0--0--0-0--0-0-0-0--0-0-0--0-0--0--0-0--0-0-0-0-

-----------------------------------------------------------|
-----------------------------------------------------------|
-----------------------------------------------------------|
-3-3-3--3-3--3--3-3--3-3-3-3--6-6-6--6-6--6--6-6--6-6-6-6--|
-3-3-3--3-3--3--3-3--3-3-3-3--6-6-6--6-6--6--6-6--6-6-6-6--|
-1-1-1--1-1--1--1-1--1-1-1-1--4-4-4--4-4--4--4-4--4-4-4-4--|

Riff 3
|--------------------------------|
|--------------------------------|
|--------------------------------|
|--6----5--------------3---------|
|--6----5--------------3---------|
|--4----3----000000000-1----0-0--|
pm . .

Riff 4
|-----------------------------------------------|
|-----------------------------------------------|
|-----------------------------------------------|
|--5------------3--------6------------3---------|
|--3------------1--------4------------1---------|
|--3----0-0-0-0-1----0-0-4----0-0-0-0-1----0-0--|

Like us on Facebook.....
-> Loading Time :0.0071 sec