Shatner Tabs & Lyrics by The Wedding Present

Shatner

guitar tabs lyrics

The Wedding Present

Album : George Best Plus indie PlayStop



Song: Shatner
Artist: The wedding present
Album: George Best



Intro / [chorus RIff]
E||---10-9--10-9--10-----------------|
B||---10-7--10-7--10---7--5--7--5----|
G||---7--7--7--7--7----7--7--7--7----|

D||---7--7--7--7--7----x--x--x--x----|
A||--------------------7--7--7--7----|
E||----------------------------------|

Guitar Chords
E||-----10---------5-----------------|
B||-----10----7----5----12----14-----|
G||-----11----7----6----12----14-----|

Like us on Facebook.....
-> Loading Time :0.0281 sec