Memories of Tomorrow Tabs & Lyrics by Suicidal Tendencies

Memories of Tomorrow

guitar tabs lyrics

Suicidal Tendencies

Album : Suicidal Tendencies hardcore punk PlayStop



Band: Suicidal Tendencies
Album: Suicidal Tendencies
Song: Memories Of Tomorrow

Copyright (c) (Virgin) (1983)
Version 1.0 - (09/06/05)

Transcribed By: Steve
Email: [email protected]




. - palm mute / - slide up to
\ - slide down to ~ - vibrato
h - hammer on b - Bend
p - pull off Suffixes for bend
t - tap f - full bend h - half bend
ph - pinched harmonic q - quarter bend t - tap bend
* - see comment ^ - Hold bend r release bend
x - Stuccatto ~ - vibrato bend
, - slight palm mute () - ghost note, sustained note
" - tremolo note - Trill

Tunning E A D G B E


Intor


E---------|
B---------|
G-4-/5----|
D-4-/5----|
A-2-/3----|
E---------| Rpt 4 X

Verse

E-----------------|
B-----------------|
G-4-4/5-5-2-2-3-3-|
D-4-4/5-5-2-2-3-3-|
A-2-2/3-3-0-0-1-1-|
E-----------------| Rpt 4 X

Chorus
PM PM PM
E--------------------------|
B--------------------------|
G-5-5---7-7---8-8---101010-|
D-5-5---7-7---8-8---101010-|
A-3-3-3-5-5-5-6-6-6-8-8-8--|
E--------------------------| Rpt

Rpt Verse
Pick Scrape
E----------------------------------|
B----------------------------------|
G-5--------------------------------|
D-5----------------\-\-------------|
A-3-----------------\-\------------|
E----------------------------------|

Rpt Verse and Chorus
Rpt Verse

Pick Scrape
E------------------------------------|
B------------------------------------|
G-4/5--------------------------------|
D-4/5----------------\-\-------------|
A-2/3-----------------\-\------------|
E------------------------------------|

[----PM-----]
E-------------------|
B-------------------|
G-------------------|
D-4-4/5-5-2-2-3-(3)-|
A-2-2/3-3-0-0-1-(1)-|
E-------------------| Rpt 4 X

Rpt Chorus
Rpt Verse with palm muted riff.

Pick Scrape
E------------------------------------|
B------------------------------------|
G-4/5--------------------------------|
D-4/5----------------\-\-------------|
A-2/3-----------------\-\------------|
E------------------------------------|

E---------|
B---------|
G-4-/5----|
D-4-/5----|
A-2-/3----|
E---------| Rpt 4 X




END

Like us on Facebook.....
-> Loading Time :0.0120 sec