No Lies Tabs & Lyrics by Riot

No Lies

guitar tabs lyrics

Riot

Album : Fire Down Under heavy metal PlayStop



-----------------------------------------------------------------
No Lies - Riot
-----------------------------------------------------------------
Tabbed by: Scott Lawson
Email: [email protected]

Tuning: Standard


The song alternates between these three parts:



e|-------- --2-----------------0---------------------------------|
B|--------- ---5-4p2-----------0---0-----------------------------|
G|-----4---- --------4-------2-----------------------------------|
D|---4---4-----------------2-----2-------------------------------|
A|-2---------------------0---------------------------------------|
E|---------------------------------------------------------------|



e|---------------------------------------------------------------|
B|---------------------------------------------------------------|
G|---------------------------------------------------------------|
D|-4-4-4-4-4-4-4-4-4-4-4-4-4-4-4-4-2-2-2-2-2p0---2-0-4-4---------|
A|-2-2-2-2-2-2-2-2-2-2-2-2-2-2-2-2-0-0-0-0---- 0-0-0-2-2---------|
E|---------------------------------------------------------------|




e|-----------------------------------------3---------------------|
B|-----------------------------------------3---------------------|
G|-2---------------2---4---2---------------0-2-4-----------------|
D|-2-6----------2--2-2-4---2-6----------2--0-2-4-----------------|
A|-0-6--4-2-4-5----0-2-2---0-6--2-4-4/5----x-0-2-----------------|
E|---4---------------0-------4-------------3---------------------|



| / slide up
| \ slide down
| h hammer-on
| p pull-off
| ~ vibrato
| + harmonic
| x Mute note

Like us on Facebook.....
-> Loading Time :0.0096 sec