King of the Box Tabs & Lyrics by Buck-O-Nine

King of the Box

guitar tabs lyrics

Buck-O-Nine

Album : Songs in the Key of Bree punk PlayStop



Buck-o-Nine
Songs In The Key Of Bree ~~~ King of the Box
(Intro & Chorus)


Intro (played a little bit throughout)

E-----------------------------------------------------------------------|
B-----------------------------------------------------------------------|
G-----------------------------------------------------------------------| (4x)

D------4-4-4-4-4-----7-7-7-7-7-----11-11-11-11-11------9-9-9-9-9\5------|
A------4-4-4-4-4-----7-7-7-7-7-----11-11-11-11-11------9-9-9-9-9\5------|
E ------2-2-2-2-2-----5-5-5-5-5-----9 -9 – 9 – 9 - 9 ------7-7-7-7-7\3--|

E-------------------------------------------------------------------------------------------------|
B-------------------------------------------------------------------------------------------------|
G----------------------------------------------------------------9-9-9-9-9-9-9-9-9-9-9-9-9-9-9-9--|
D------4-4-4-4-4-----7-7-7-7-7-----11-11-11-11-11------9-9-9-9-9-9-9-9-9-9-9-9-9-9-9-9------------|
A------4-4-4-4-4-----7-7-7-7-7-----11-11-11-11-11------7-7-7-7-7-7-7-7-7-7-7-7-7-7-7-7------------|
E ------2-2-2-2-2-----5-5-5-5-5-----9 – 9 – 9 –9 –9-----------------------------------------------|

Chorus

E-----------------------------------------------------------------------|
B-----------------------------------------------------------------------|
G-----------------------------------------------------------------------|(2x)
D-----4—4—4/7----------4—4—4/7----------4—4—4/7-----9-9-9-9-9-9-9-9\7---|
A-----4—4—4/7----------4—4—4/7----------4—4—4/7-----9-9-9-9-9-9-9-9\7---|
E -----2—2—2/5----------2—2—2/5----------2—2—2/5-----7-7-7-7-7-7-7-7\5--|
* * * * * * * * *


Yeah, sorry, I couldn’t figure out the ska strokes, the verse, if you will, and whatnot.
If you got a beef, too bad sucker.

Like us on Facebook.....
-> Loading Time :0.0100 sec