Is Chicago, Is Not Chicago Tabs & Lyrics by Soul Coughing

Is Chicago, Is Not Chicago

guitar tabs lyrics

Soul Coughing

Album : Ruby Vroom albums i own PlayStop



u = upstroke
v = downstroke
(#) = ghost note


Intro/Verse/Bridge:


v u v u v v
e--------0---0------3---(3)-|

B--------0---0------3----3--|
G--------1---1------0----0-.|
D-------(0)-(0)----(0)--0-.|
A-------(2)-(2)---------(2)-|
E-0~~~~~~--------------3----|
A man...

Chorus:

v u u u u v u u u u
e---0-0--0-0----0-0-0-0--|
B---2-2--2-2----2-2--2-2--|
G---1-1--1-1----1-1--1-1-.|
D---0-0--0-0----0-0--0-0-.|
A-------------------------|
E-0-----------0-----------|
Is Chicago...

Verse:

v
e-(0)~~~~~~~|------------|
B-(0)~~~~~~~|------------|
G--1~~~~~~~~|.----------.|
D--0~~~~~~~~|.----------.|
A--2~~~~~~~~|------------|
E--0~~~~~~~~|------------|
A man...

A man...
v u v u v v
e--------0---0------3---(3)-|
B--------0---0------3----3--|
G--------1---1------0----0-.|
D-------(0)-(0)----(0)--0-.|
A-------(2)-(2)---------(2)-|
E-0~~~~~~--------------3----|
Cuts in half

Bridge:

v
e-(0)~~~~~~~|------------|
B-(0)~~~~~~~|------------|
G--1~~~~~~~~|.----------.|
D--0~~~~~~~~|.----------.|
A--2~~~~~~~~|------------|
E--0~~~~~~~~|------------|
Khartoum is in the room...

Chorus:

v u u u u v u u u u
e---0-0--0-0----0-0-0-0--|
B---2-2--2-2----2-2--2-2--|
G---1-1--1-1----1-1--1-1-.|
D---0-0--0-0----0-0--0-0-.|
A-------------------------|
E-0-----------0-----------|
Is Chicago...

Verse:

v
e-(0)~~~~~~~|------------|
B-(0)~~~~~~~|------------|
G--1~~~~~~~~|.----------.|
D--0~~~~~~~~|.----------.|
A--2~~~~~~~~|------------|
E--0~~~~~~~~|------------|
A man...
v
e-------------------------|
B-----------------0-------|
G-----------------1-------|
D-----------------0-------|
A-------------------------|
E-------------------------|
A man...

Outtro:

e-2-2-2-2-2-2-2-2-2-2-2-2--|
B-2-2-2-2-2-2-2-2-2-2-2-2--|
G-1-1-1-1-1-1-1-1-1-1-1-1-.|
D-0-0-0-0-0-0-0-0-0-0-0-0-.|
A--------------------------|
E--------------------------|


Like us on Facebook.....
-> Loading Time :0.0114 sec