Paid Vacation Tabs & Lyrics by Circle Jerks

Paid Vacation

guitar tabs lyrics

Circle Jerks

Album : Group Sex / Wild in the StreetsPlayStop



circle jerks - paid vacation from the album 'group sex'

intro/main riff:

E------------------------------|
B------------------------------|
G------------------------------| (repeat this a few times)
D------------------------------|
A--------7--5-7-----7--5-7-----|
E-----5----------5----------4--|



i hope your having fun.....

E-5-----------5--------5--|
B-5--9--7--9--5--9--7--5--|
G-6--9--7--9--6--9--7--6--|
D-7--9--7--9--7--9--7--7--|
A-7--7--5--7--7--7--5--7--|
E-5-----------5--------5--|


it's not vietnam......

E-5-------5-------4--|
B-5--9-7--5--9-7--4--|
G-6--9-7--6--9-7--5--|
D-7--9-7--7--9-7--6--|
A-7--7-5--7--7-5--6--|
E-5-------5-------4--|


fix bayonets, check grenades.......

E-9-------9-----------7--|
B-9---11--9--11--9----7--|
G-10--11--10-11--9----8--|
D-11--11--11-11--9----9--|
A-11--9---11-9---7----9--|
E-9-------9-----------7--|


tat's about it. 100% correct. of course you need to strum the chords more than i have
and repeat the parts a few times but thats it.

any comments or any suggestions to any PUNK songs you would like me to tab send an email
- gerbilgenitalia@yahoo.co.uk

any hate mail send to - iamdrknow@aol.com (ha ha)

Like us on Facebook.....
-> Loading Time :0.0168 sec