Hideaway Tabs & Lyrics by Fuel

Hideaway

guitar tabs lyrics

Fuel

Album : Sunburn rock PlayStop



FUEL
HIDEAWAY
ALBULM: SUNNURN

TABBED BY LENNIE

lennie_logan@yahoo.co.nz

Intro (use very slight distorion ):
e|-5--------------------------5----------------|

b|-5--7------------7-------7--5--5--------5----|
g|-5--x--7-------7---7-7---x--5--x------5---5-5|
d|-5--7--7-----5-----------7--5--5-----3-------|
a|-5--5--5---5-------------5--5--3---3---------|
E|-------0-------------------------------------|


HERES ANOTHER CHORD USED
e|---------------|
b|---------------|
g|---------------|
d|-2-------------|
a|-2-------------|
E|-0-------------|

HAVE FUN! PEACE

Like us on Facebook.....
-> Loading Time :0.0223 sec