My Life Tabs & Lyrics by Agnostic Front

My Life

guitar tabs lyrics

Agnostic Front

Album : Riot, Riot, Upstart hardcore punk PlayStop



intro
|------------------------|
|------------------------|
|-----------7------------| < x2
|99999999999-99999999999-|
|-----------------------7|
|------------------------|

main riff
|---------------------| |----------------------------------|

|---------------------| |----------------------------------|
|----777---99997779999| < x4 |9999777999999997779999------------|
|777777777799997779999| |999977799999999777999999999999999-|
|777755577777775557777| |7777555777777775557777-----------7|
|5555---555-----------| |----------------------------------|

repeat main riff then...
solo
|----- ---------------- ---- - - - - - - - - ---|
|99991197-7777975-99991197 14141412141414141214-|
|--------9-------7----- --9- - - - - - - - - ---|
|---------------------- ---- - - - - - - - - ---|
|---------------------- ---- - - - - - - - - ---|
|---------------------- ---- - - - - - - - - ---|

main riff
|---------------------| |----------------------------------|
|---------------------| |----------------------------------|
|----777---99997779999| < x4 |9999777999999997779999------------|
|777777777799997779999| |999977799999999777999999999999999-|
|777755577777775557777| |7777555777777775557777-----------7|
|5555---555-----------| |----------------------------------|

|----------------------------------|
|----------------------------------|
|9999777999999997779999------------|
|999977799999999777999999999999999-|
|7777555777777775557777-----------7|
|----------------------------------|

|------------------------|
|------------------------|
|-----------7------------| < x2
|99999999999-99999999999-|
|-----------------------7|
|------------------------|


thats it hope you find it useful
see ya next time.......

Like us on Facebook.....
-> Loading Time :0.0102 sec