Drug Ballad Tabs & Lyrics by Eminem

Drug Ballad

guitar tabs lyrics

Eminem

Album : Piece of MindPlayStop



Author/Artist: EMINEM
Title: Drug Ballad
Transcribed by: Justin Adair
Email: [email protected]

------------------------------------------------------------------------------
------------------------------------------------------------------------------
------------------------------------------------------------------------------
------------------------------------------------------------------------------
------7--x--10--9--------7--x--10--9------------------------------------------

--0------------------0-----------------0--5--x--8--7---0--5--x--8--7----------
intro + chorus

------------------------------------------------------------------------------
------------------------------------------------------------------------------
-----------------4--4--7--7-----------4--4--7--7-----------4--4--7--7---------
------------5--5-----------------5--5-----------------5--5-----------------5--
------7--7------------------6--6-----------------5--5-----------------4--4----
------------------------------------------------------------------------------
verse

----------------|-------------------------------------------------------------
----------------|-------------------------------------------------------------
----4--4--7--7--|-------------------------------------------------------------
--5-------------|-------------------------------------------------------------
----------------|-------------------------------------------------------------
----------------|-------------------------------------------------------------
repeat



Like us on Facebook.....
-> Loading Time :0.0238 sec