Ocean Sounds Tabs & Lyrics by Caesar

Ocean Sounds

guitar tabs lyrics

Caesar

Album : Clean rock PlayStop



-------------------------------------------------------------------------------
Ocean Sounds - Caesar
-------------------------------------------------------------------------------
Tabbed by: verick88
Email:verick88@gmail.com
URL: http://www.caesartheband.com/

Tuning: standard
Capo: 2nd

Intro/Verse:
e|---2-2---2----0*-0--1-0----------|*the fourth time there is a small pause
B|---3--3---3---3---3----3---------|
G|---2---2---2--3----3----3--------| 4X
D|---0--------0-0------------------|
A|---------------------------------|
E|---------------------------------|

Chorus:
D C F A
e|---2-2-3-2-0-2--0-3-3-3-3-1-1-1-1-1-0-0-0-0-0-|
B|---3-3-3-3-3-3--1-1-1-1-1-1-1-1-1-1-5-5-5-3-5-|
G|---2-2-2-2-2-2--0-0-0-0-0-2-2-2-2-2-6-6-6-4-6-| 2X
D|---0-0-0-0-0-0--2-2-2-2-2-3-3-3-3-3-7-7-7-6-7-|
A|---0-0-0-0-0-0--3-3-3-3-3-0-0-0-0-0-7-7-7-6-7-|
E|--------------------------0-0-0-0-0-----------|

Verse 1:
Life is sweet and sweet is life
Things you see, along the line

Chorus:
Hurry up, come figure out
What's behind a million clouds

Verse 2:
All in time we hang around
Let it slide in ocean sounds

Chorus:
Hurry up, come figure out
What's behind a million clouds

Intersection:
DDDD/FFFF/EEEE/AAAA (6 times: mute chords first 1,5 times then let ring on E)
I got my feet in the grave, but my mind is young
I wanna talk about the odds that have brought me down
There's a crack in the paint, but I'm not to blame
Well sure enough your man can rearrange

DDDD/FFFF/EEEE/AAAA (6 times: mute chords first 1,5 times then let ring on E)
I've been bound to come around, come and see
I wanna talk about the rules, you layed on to me
There's a hole in the ground, where the ocean sounds
Well sure enough your man has been around

Chorus:
D C F A
e|---2-2-3-2-0-2--0-3-3-3-3-1-1-1-1-1-0-0-0-0-0------------------------------|
B|---3-3-3-3-3-3--1-1-1-1-1-1-1-1-1-1-5-5-5-3-5------------------------------|
G|---2-2-2-2-2-2--0-0-0-0-0-2-2-2-2-2-6-6-6-4-6------------------------------|
D|---0-0-0-0-0-0--2-2-2-2-2-3-3-3-3-3-7-7-7-6-7------------------------------|
A|---0-0-0-0-0-0--3-3-3-3-3-0-0-0-0-0-7-7-7-6-7------------------------------|
E|--------------------------0-0-0-0-0----------------------------------------|
Ocean sounds
Ocean Sounds

Outro:
e|---2-2---2----0*-0--1-0---2------|*the fourth time delay plucking for a fade out
B|---3--3---3---3---3----3--3------|
G|---2---2---2--3----3----3-2------|
D|---0--------0-0-----------0------|
A|---------------------------------|
E|---------------------------------|


===============================================================================

Like us on Facebook.....
-> Loading Time :0.0226 sec