Dreams Tabs & Lyrics by King Diamond

Dreams

guitar tabs lyrics

King Diamond

Album : The Spider’s LullabyePlayStop



King Diamond: Dreams

transcribed by: Langus : [email protected]
edited by: Russ Elton : [email protected]

FIND EVERY MERCYFUL FATE/KING DIAMOND SONG AND
THE MOST UPDATED VERSION OF THIS SONG AT:

The Tab Crypt
http://abysslord.com/thetabcrypt/


Date last modified: December 31, 2004

PLEASE DO NOT COPY THIS TAB TO ANOTHER SITE
WITHOUT AUTHORS' PERMISSION. THANK YOU.

Tuning: Standard

Riff 1
Guitar 1
e|---------------|
B|---------------|
G|---------------|
D|-5---6---7---8-|
A|-3---4---5---6-|
E|---------------|

Guitar 2
e|---------------|
B|---------------|
G|---------------|
D|-5---6---7---8-|
A|---------------|
E|---------------|


Riff 2 (Solo Rhythm)
e|---------------------------------|
B|---------------------------------|
G|---------------------------------|
D|--------9---11---------12----11--|
A|--------7----9---------10-----9--|
E|-0-0-0-----0-----0-0-0-----0-----|
* * * * * * * *
e|-------------------------------|
B|-------------------------------|
G|-------------------------------|
D|--------9----11----------------|
A|--------7-----9--555555-666666-|
E|-0-0-0-----0-------------------|
* * * * ****** ******

Last time
e|---------------------------|
B|---------------------------|
G|---------------------------|
D|--------9----11--12-11-9-7-|
A|--------7-----9--10--9-7-5-|
E|-0-0-0-----0---------------|
* * * *


Riff 3
e|---------------------------------|
B|---------------------------------|
G|---------------------------------|
D|---------------------------------|
A|---------------------------------|
E|-2-2-3-2---2-2-3-3-6-6-5-2-2-3-2-|
* * * * * * * * * * * * * * *
"The witching hour..."
e|------------------------|
B|------------------------|
G|------------------------|
D|------------------------|
A|------------------------|
E|-2-2-3-3-6-6-5-5-5-6-5--|
* * * * * * * * * * *
"I know that..."
e|---------------------------------------|
B|---------------------------------------|
G|---------------------------------------|
D|---------------------------------------|
A|---------------------------------------|
E|-5-5-6-6-9-9-8-5-5-6-5---5-5-6-6-9-9-8-|
* * * * * * * * * * * * * * * * * *
"...it's all in this tune..."

Riff 4
e|--------------------------------------------|
B|--------------------------------------------|
G|--------------------------------------------|
D|--------------------------------------------|
A|------------4---5---4-------------4---------|
E|-2--2-2-2-2---2---2----3--3-3-3-3---3--5--3-|
* * * * * * * * * * * * *
"Dreams, dreams..."


Play Riff 3 "They cannot wait..."
Play Riff 4 "Dreams, dreams..."

Lead into next section:
e|---------|
B|---------|
G|---------|
D|---------|
A|---------|
E|-2-2-3-2-|
* * * *
"Dreams in the night..."

Play Riff 1 Solo Rhythm
Play Riff 2 Solo Rhythm

Riff 5
e|------------------------------------|
B|------------------------------------|
G|------------------------------------|
D|-3-------3-----------3-------3------|
A|-1-------1-----------1-------1----2-|
E|---0-0-0----0-3-2-0----0-0-0----0-0-|
* * * * * * *
"Give me another dream now!"


Play Riff 3 "The spider's..."
Play Riff 4 "Dreams..."
Play Riff 5 "Give me another..."

Riff 6 x2
e|----------------------------------|
B|----------------------------------|
G|-10------9-----10------9---10-9-5-|
D|--0-0-0--0-0-0--0----0-0-0--0-0-0-|
A|----------------------------------|
E|----------------------------------|
* * * * * *
"Rainbows and waterfalls..."
x2
e|--------------------------------|
B|--------------------------------|
G|--------------------------------|
D|-7-----9-----10------9---10-9-5-|
A|-0-0-0-0-0-0--0----0-0-0--0-0-0-|
E|--------------------------------|
* * * * * *
"...pond of gold..."
x2
e|----------------------------------|
B|----------------------------------|
G|-10------9-----10------9---10-9-5-|
D|--0-0-0--0-0-0--0----0-0-0--0-0-0-|
A|----------------------------------|
E|----------------------------------|
* * * * * *
"Sweet blue eyes..."
e|--------------------------------|
B|--------------------------------|
G|--------------------------------|
D|-7-----9-----10------9---10-9-5-|
A|-0-0-0-0-0-0--0----0-0-0--0-0-0-|
E|--------------------------------|
* * * * * *
"...follow them to the other side..."


Riff 7 (Solo Rhythm)
e|----------|
B|----------|
G|----------|
D|----------|
A|----------|
E|-5-5-6-5--|
* * * *
e|---------------------------------------|
B|---------------------------------------|
G|---------------------------------------|
D|---------------------------------------|
A|---------------------------------------|
E|-5-5-6-6-9-9-8-5-5-6-5---5-5-6-6-9-9-8-|
* * * * * * * * * * * * * * * * * *
e|---------------------------------|
B|---------------------------------|
G|---------------------------------|
D|---------------------------------|
A|---------------------------------|
E|-2-2-3-2---2-2-3-3-6-6-5-2-2-3-2-|
* * * * * * * * * * * * * * *
e|---------------|
B|---------------|
G|---------------|
D|---------------|
A|---------------|
E|-2-2-3-3-6-6-5-|
* * * * * * *
e|----------|
B|----------|
G|----------|
D|----------|
A|----------|
E|-5-5-6-5--|
* * * *
e|---------------------------------------|
B|---------------------------------------|
G|---------------------------------------|
D|---------------------------------------|
A|---------------------------------------|
E|-5-5-6-6-9-9-8-5-5-6-5---5-5-6-6-9-9-8-|
* * * * * * * * * * * * * * * * * *


Play Riff 4 "Dreams..."

Lead into next section:
e|---------|
B|---------|
G|---------|
D|---------|
A|---------|
E|-2-2-3-2-|
* * * *
"Dreams in the night..."

Play Riff 1
Play Riff 2 "Let me out of these..."

Ending:
e|---------|
B|---------|
G|---------|
D|---------|
A|---------|
E|-2-2-3-2-|
* * * *


notation:
^ = bend [ ^ = half, ^^ = whole, etc. ]
^r = bend and release
x = mute with fret-hand
* = mute with palm-hand
X\\ = pick slide
h = hammer-on
p = pull-off
~ = vibrato
t = tap-on
/ = slide up
\ = slide down
h. = harmonics
ah = artificial harmonic
(9) = ghost note
tm = trem picking
tr = trill

Like us on Facebook.....
-> Loading Time :0.0107 sec