Moral Majority Tabs & Lyrics by Circle Jerks

Moral Majority

guitar tabs lyrics

Circle Jerks

Album : Group Sex / Wild in the StreetsPlayStop



-------------------------------------------------------------------------------
Moral Majority - The Circle Jerks
Wild In The Streets
-------------------------------------------------------------------------------
Tabbed by: axeslash
Email: holmzito@yahoo.com

Tuning: Standard

e|-----------------------------------------------------------------|

B|-----------------------------------------------------------------|
G|-----------------------------------------------------------------|
D|-9-9-9-9-9-9-9-9-9-9-9-9-7-7-4-4-4-4-4-4-4-4-4-4-4-4-4-4-4-4-4-4-|
A|-9-9-9-9-9-9-9-9-9-9-9-9-7-7-4-4-4-4-4-4-4-4-4-4-4-4-4-4-4-4-4-4-|
E|-7-7-7-7-7-7-7-7-7-7-7-7-5-5-2-2-2-2-2-2-2-2-2-2-2-2-2-2-2-2-2-2-| x2

e|----------------| e|-----------------------------------|
B|----------------| B|-----------------------------------|
G|-----9\\7-7-----| G|-----------------------------------|
D|-9-9-9\\7-7-7-7-| D|-3-3-3-5--5--10--10-10-10-10-10-10-|
A|-9-9-7\\5-5-7-7-| A|-3-3-3-5--5--10--10-10-10-10-10-10-|
E|-7-7--------5-5-| x8 E|-1-1-1-3--3---8---8--8--8--8--8--8-| x2

e|-----------------------------------------------------------------|
B|-----------------------------------------------------------------|
G|-----------------------------------------------------------------|
D|-9-9-9-9-9-9-9-9-9-9-9-9-7-7-4-4-4-4-4-4-4-4-4-4-4-4-4-4-4-4-4-4-|
A|-9-9-9-9-9-9-9-9-9-9-9-9-7-7-4-4-4-4-4-4-4-4-4-4-4-4-4-4-4-4-4-4-|
E|-7-7-7-7-7-7-7-7-7-7-7-7-5-5-2-2-2-2-2-2-2-2-2-2-2-2-2-2-2-2-2-2-|

e|----------------| e|-----------------------------------|
B|----------------| B|-----------------------------------|
G|-----9\\7-7-----| G|-----------------------------------|
D|-9-9-9\\7-7-7-7-| D|-3-3-3-5--5--10--10-10-10-10-10-10-|
A|-9-9-7\\5-5-7-7-| A|-3-3-3-5--5--10--10-10-10-10-10-10-|
E|-7-7--------5-5-| x8 E|-1-1-1-3--3---8---8--8--8--8--8--8-| x2

e|-----------------------------------------------------------------|
B|-----------------------------------------------------------------|
G|-----------------------------------------------------------------|
D|-9-9-9-9-9-9-9-9-9-9-9-9-7-7-4-4-4-4-4-4-4-4-4-4-4-4-4-4-4-4-4-4-|
A|-9-9-9-9-9-9-9-9-9-9-9-9-7-7-4-4-4-4-4-4-4-4-4-4-4-4-4-4-4-4-4-4-|
E|-7-7-7-7-7-7-7-7-7-7-7-7-5-5-2-2-2-2-2-2-2-2-2-2-2-2-2-2-2-2-2-2-|

e|-----------------------------------------------------------|
B|-----------------------------------------------------------|
G|-----9\\7-7---------9\\7-7---------9\\7-7---------9\7------|
D|-9-9-9\\7-7-7-7-9-9-9\\7-7-7-7-9-9-9\\7-7-7-7-9-9-9\7-7-9--|
A|-9-9-7\\5-5-7-7-9-9-7\\5-5-7-7-9-9-7\\5-5-7-7-9-9-7\5-7-9--|
E|-7-7--------5-5-7-7--------5-5-7-7--------5-5-7-7-----5-7--|


| / slide up
| \ slide down
| h hammer-on
| p pull-off
| ~ vibrato
| + harmonic
| x Mute note
===============================================================================

Like us on Facebook.....
-> Loading Time :0.0082 sec