Drained Tabs & Lyrics by Life of Agony

Drained

guitar tabs lyrics

Life of Agony

Album : Ugly alternative metal PlayStop



Drained

BY LIFE OF AGONY
from the album 'ugly'

transcribed by Christian Reindel ([email protected])
any questions or corrections- e-mail me

TUNE DOWN ONE WHOLE STEP: Dropped C tuning

Intro/Chorus riff
D:|-------------------------------|
A:|-------------------------------|
F:|-------------------------------|
C:|-------------------------------|
G:|-----3-------------------------|
C:|-0-0---3--0-3^5^3--0--3--5--6--|

End Chorus-riff
D:|---------------------------------|
A:|---------------------------------|
F:|---------------------------------|
C:|---------------------------------|
G:|-----5--3------------------3-----|
C:|-0-0-------6--5--3--3^5^3----3---|


Verse Riff ( 2 times)
D:|------------------------------------|
A:|------------------------------------|
F:|------------------------------------|
C:|-----------8-8----------------8-8---|
G:|-0--(0)----6-6-----0--(0)-----6-6---|
C:|-0--(0)------------0--(0)-----------|


Chorus Riff 2 times

Verse Riff 2 times

Interlude Part
D:|------------------|
A:|------------------|
F:|------------------|
C:|------------------|
G:|-5-5-5-5-5--------|
C:|-5-5-5-5-5--------|

1.Part (2 times)

this Part 3 times than this
D:|---------------------------------|---------------------|
A:|---------------------------------|---------------------|
F:|---------------------------------|---------------------|
C:|---------------------------------|---------------------|
G:|--5--5-5-5-1~-1~--3^5^3----------|--1--(1)----3---(3)--|
C:|--5--5-5-5--------------3~-------|--1--(1)----3---(3)--|

2.Part 3 times than this = end interlude
D:|--------------------------|----------|
A:|--------------------------|----------|
F:|--------------------------|----------|
C:|--------------------------|----------|
G:|--5--5-5-5-1~-1~-3-3-3-3--|--5--3----|
C:|--5--5-5-5-------3-3-3-3--|--5--3----|


back to Verse Riff 2 times
than Chorus Riff 2 times with guitarsolo
back to Interlude
than Chorus Riff 2 times

D:|------------|
A:|------------|
F:|------------|
C:|------------|
G:|----0-0-----|
C:|----0-0-----|

End.

Like us on Facebook.....
-> Loading Time :0.0069 sec