Dead Horse Tabs & Lyrics by Guns N' Roses

Dead Horse

guitar tabs lyrics

Guns N' Roses

Album : Use Your Illusion I hard rock PlayStop



Gtr I (Eb Ab Db Gb Bb Eb) - 'W/Acoustic'
Gtr II (Eb Ab Db Gb Bb Eb) - 'Gtr. 1 W/Clean'
Gtr III (Eb Ab Db Gb Bb Eb) - 'Gtr. 2 W/Clean'
Gtr IV (Eb Ab Db Gb Bb Eb) - 'Gtr. 1 W/Distortion'
Gtr V (Eb Ab Db Gb Bb Eb) - 'Gtr.2 W/Distortion'
Gtr VI (Eb Ab Db Gb Bb Eb) - 'Grt. 3 W/Lead'


Verse
Q=128

A5 B5 B5 G#5 F#G#A5
4/4
Gtr I
Q Q E E E E +Q E E E E E E +Q E E E E E E
|---------------|------------------|------------------|
|---------------|------------------|------------------|
|---------------|------------------|------------------|
|-7--7----7---9-|-(9)--9-----9---6-|-(6)--6-----4s6-7-|
|-7--7----7---9-|-(9)--9-----9---6-|-(6)--6-----4s6-7-|
|-5--5--x-5---7-|-(7)--7---x-7---4-|-(4)--4---x-2s4-5-|


G#A5G#5 A5 B5 E5
+Q E E E E E E Q E E E E E E +Q E E E E E E +Q Q E E E E
|------------------|----------------|------------------|------------------|
|------------------|----------------|------------------|------------------|
|------------------|----------------|------------------|------------------|
|-(7)--7-----6s7-6s|=7--7-----7---9-|-(9)--9-----9---2-|-(2)--2----2---2--|
|-(7)--7-----6s7-6s|=7--7-----7---9-|-(9)--9-----9---2-|-(2)--2----2---2--|
|-(5)--5---x-4s5-4s|=5--5---x-5---7-|-(7)--7---x-7---0-|-(0)--0--0-0-0-0--|


F#5 G5 G#5 A5 B5 C#5 G#5 A5B5A5
+E E E E E E E E Q E E E E E E +Q E E E E E E +Q E E E E E E
|-------------------|----------------|-------------------|-------------------|
|-------------------|----------------|-------------------|-------------------|
|-------------------|----------------|-------------------|-------------------|
|-(2)---------------|----7-----7---9-|-(9)--9-----11---6-|-(6)--6-----7s9-7--|
|-(2)-2-4-4-5-5-6-6-|-7--7-----7---9-|-(9)--9-----11---6-|-(6)--6-----7s9-7--|
|-(0)-0-2-2-3-3-4-4-|-5--5---x-5---7-|-(7)--7---x--9---4-|-(4)--4---x-5s7-5--|


G#A5G#5 A5 G#A5B5 E5
+Q E E E E E E Q E E E E E E +Q E E E E E E Q Q E E E E
|------------------|----------------|------------------|----------------|
|------------------|----------------|------------------|----------------|
|------------------|----------------|------------------|----------------|
|-(7)--7-----6s7-6s|=7--7-----6-7-9-|-(9)--9-----9---2-|-2--2----2---2--|
|-(7)--7-----6s7-6s|=7--7-----6-7-9-|-(9)--9-----9---2-|-2--2----2---2--|
|-(5)--5---x-4s5-4s|=5--5---x-4-5-7-|-(7)--7---x-7-x-0-|-0--0--0-0-0-0--|


F#5 G5 G#5 A5 C#5 B5 G#5
E E E E E E E E Q E E E E E E +Q E E E E E E
|-----------------|-----------------|------------------|
|-----------------|-----------------|------------------|
|-----------------|-----------------|------------------|
|-2---------------|----7-----11---9-|-(9)--9-----9---6-|
|-2-2-4-4-5-5-6-6-|-7--7-----11---9-|-(9)--9-----9---6-|
|-0-0-2-2-3-3-4-4-|-5--5---x--9---7-|-(7)--7---x-7---4-|


A5B5A5 G#A5G#5 A5 B5
+Q E E E E E E +Q E E E E E E Q E E E E E E
|------------------|------------------|----------------|
|------------------|------------------|----------------|
|------------------|------------------|----------------|
|-(6)--6-----7s9-7-|-(7)--7-----6s7-6s|=7--7-----7---9-|
|-(6)--6-----7s9-7-|-(7)--7-----6s7-6s|=7--7-----7---9-|
|-(4)--4---x-5s7-5-|-(5)--5---x-4s5-4s|=5--5---x-5---7-|


E5 E5/B
Gtr II
H Q E E Q E E Q E E Q E E Q E E
| | | | | |
/ / / x x x

Gtr I
Q E E E E E E Q Q E E E E E E E E E E E E
|----------------|----------------|-----------------|
|----------------|----------------|-----------------|
|----------------|----------------|-----------------|
|-9--9-----9---2-|-2--2-----2---2-|-2---------------|
|-9--9-----9---2-|-2--2-----2---2-|-2-2-4-4-5-5-6-6-|
|-7--7---x-7-x-0-|-0--0---0-0-0-0-|-0-0-2-2-3-3-4-4-|


A B G#m A F/A
Gtr II
Q E Q E E E +Q E Q E E E +Q E Q E E E +E E Q Q Q
| | | | | | | | | | | | | | | | |
/ / / / / / / / / / / / / / / / /

Gtr I
Q E E E E E E +Q E E E E E E +Q E E E E E E +Q E E E E E E
|----------------|-------------------|------------------|---------------------|
|----------------|-------------------|------------------|---------------------|
|----------------|-------------------|------------------|---------------------|
|----7-----7-8-9-|-(9)--9-----11---6-|-(6)--6-----4-6-7-|-(7)-----------------|
|-7--7-----7-6-9-|-(9)--9-----11---6-|-(6)--6-----4-6-7-|-(7)----7-6-7-6-7-6--|
|-5--5---x-5-6-7-|-(7)--7---x--9---4-|-(4)--4---x-2-4-5-|-(5)----5-4-5-4-5-4--|
|
| Gtr III
| Q E Q E E E +Q E Q E E E +Q E Q E E E +E Q. E E E E
|----5-----5-----|------7------7-----|------4-----4-----|-----5------5-4-2-0--|
|----5-----5-----|------7------7-----|------4-----4-----|-----5---------------|
|-6------------8-|-(8)---------------|----------------6-|-(6)--------6-4-2-1--|
|----------------|-----------------4-|-(4)--------------|---------------------|
|----------------|-------------------|------------------|---------------------|
|----------------|-------------------|------------------|---------------------|


A5 BbB5 Eb5 E5
Gtr I
Q E E E E E E +Q E E E E E E
| | | | | | | | | | |
/ / x / / / / / x / /

Gtr II
Q E Q E E E +Q E Q E E E
|-5--5-----5---6-|-(6)---6-----6-6-6-|
|-5--5-----5---6-|-(6)---6-----6-x-6-|
|-6--6-----6---7-|-(7)---7-----7-7-7-|
|-7--7-----7---8-|-(8)---8-----8-8-8-|
|----------------|-------------------|
|----------------|-------------------|
|
| Gtr III
| Q E Q E E E E E Q Q Q
|----5-----5-----|-----7-----7-------|
|----5-----5-----|-----7-----7-------|
|--------------8-|--8----------------|
|-6--------------|-------------------|
|----------------|-------------------|
|----------------|-------------------|


+W +W
| |
/ /

Gtr IV
Q E Q E Q H E E Q
|--0---0--0------0-0--|--------------------|
|--0---0--0------0-0--|--------------------|
|--1---2--2------2-2--|--------------------|
|--2---2--2------2-2--|-----------11s19s===|
|---------------------|--------------------|
|---------------------|--------------------|
|
| Q. E +H +W
|--0------0--(0)------|--(0)---------------|
|--0------0--(0)------|--(0)---------------|
|-13-----14-(14)------|-(14)---------------|
|---------------------|--------------------|
|---------------------|--------------------|
|---------------------|--------------------|


Chorus
A5 E5
Gtr IV
Q. E Q E E +Q. E H
|-----------------|-------------------|
|-----------------|-------------------|
|-9-------9-------|-------------------|
|-7-------7-----9-|-(9)-------9-------|
|-------0-------7-|-(7)-------7-------|
|-------------0---|---------0---------|
|
| Gtr V
| Q E E E E E E E E E E E E E E
|-----------------|-------------------|
|-----------------|-------------------|
|-----------------|-------------------|
|-----------------|-------------------|
|-7---9-7-7-7-9-7-|--2--2-4-2-2-2-4-2-|
|-5---5-5-5-5-5-5-|--0--0-0-0-0-0-0-0-|


A5 E5
Q. E Q E E +Q. E H 3x
||------------------|---------------------||
||o-----------------|--------------------o||
||--9-------9-------|---------------------||
||--7-------7-----9-|-(9)-------9---------||
||o-------0-------7-|-(7)-------7--------o||
||--------------0---|---------0-----------||
|
| Q E E E E E E E E E E E E E E 3x
||------------------|---------------------||
||o-----------------|--------------------o||
||------------------|---------------------||
||------------------|---------------------||
||o-7---9-7-7-7-9-7-|--2--2-4-2-2-2-4-2--o||
||--5---5-5-5-5-5-5-|--0--0-0-0-0-0-0-0---||


F#5 G#5 A5
Gtr V
W +E E Q E E E E W +H +E E E E
| | | | | | | | | | |
/ / / / / / / / / / /

Gtr IV
W +H Q Q W +H E E E E
|----------|------------------|----------|------------------|
|----------|------------------|----------|------------------|
|----------|------------------|----------|------------------|
|-4--------|-(4)------4---6---|-7--------|-(7)--------------|
|-4--------|-(4)------4---6---|-7--------|-(7)-----7-6-4-2--|
|-2--------|-(2)------2---4---|-5--------|-(5)-----5-4-2-0--|


E5 E6 E5 E6E5 E6 E5 E6 E5 E6 E5 E6E5 E6 E5 E6
Q Q E E E E +E E Q E E Q Q Q E E E E +E E Q E E Q
| | | | | | | | | | | | | | | | | | | | | | | |
/ / / / / / / / / / / / / / / / / / / / / / / /

~~~~~~~~ ~~~~~~~~
Q Q E E E E +W Q Q E E E E +W
|----0--0-0-0---|-----------------|----0--0-0-0---|------------------||
|----0--0-0-0-2-|-(2)-------------|----0--0-0-0-2-|-(2)--------------||
|-------------2-|-(2)-------------|-------------2-|-(2)--------------||
|---------------|-----------------|---------------|------------------||
|-2-------------|-----------------|-2-------------|------------------||
|-0-------------|-----------------|-0-------------|------------------||


Verse
A5 B5 G#5 A5 G#F#E5
Q Q E E E E +Q Q E E E E Q Q E E E E Q Q E E E E
| | | | | | | | | | | | | | | | | |
/ / / / / / / / / / / / / / / / / /

Q E E E E E E E E E E E E E E E E Q E E E E E E E E E E E E
|----------------|-------------------|----------------|------------------|
|----------------|-------------------|----------------|------------------|
|----------------|-------------------|----------------|------------------|
|----------------|-------------------|----------------|------------------|
|-7--9-7-7-7-9-9-|--9-9-11-9-9-9-7-6-|-6-6-6--6-6-6-7-|-7-7-9-7-7-7-9-7--|
|-5--5-5-5-5-5-7-|--7-7--7-7-7-7-7-4-|-4-4-4--4-4-4-5-|-5-5-5-5-5-5-5-5--|


A5 B5 E5 F#5 G5 G#5
Gtr IV
E E E E E E E E E E E E E E E E E E E E E E E E E E E E E E E E
|-----------------|-------------------|-------------------|--------------------|
|-----------------|-------------------|-------------------|--------------------|
|-----------------|-------------------|-------------------|--------------------|
|-----------------|-------------------|-------------------|--------------------|
|-7-7-9---7-7---9-|-x-9-11-9-9-9-11-0h|==2--2-4-2-2-2-4-2-|-----2-4-2-2-2-4-0--|
|-5-5-5---5-5---7-|-x-7--7-7-7-7--7-0-|-(0)-0-0-0-0-0-0-0-|-----0-0-0-0-0-0----|
|
| Gtr V
| Q Q E E E E Q Q E E E E Q E E E E E E +Q E E E E E E
|-----------------|-------------------|--0----0-0-0-----0-|-(0)----------------|
|-----------------|-------------------|--0----2-0-0-----0-|-(0)----------------|
|-----------------|-------------------|-------------2-2-1-|-(1)----------------|
|-7---7-----7---9-|-9----9-----9----2-|-------------------|--------------------|
|-7---7-----7---9-|-9----9-----9----2-|-------------------|-------4-4-5-5-6-6--|
|-5---5-----5---7-|-7----7-----7----0-|-------------------|-------2-2-3-3-4-4--|


A5 B5 G#5 A5
E E E E E E E E +E E E E E E E E +E E Q E E E E E E E E E E E E
|-----------------|--------------------|------------------|------------------|
|-----------------|--------------------|------------------|------------------|
|-----------------|--------------------|------------------|------------------|
|-----------------|--------------------|------------------|------------------|
|-7-7-9---7-7-9-9-|-(9)-9-11---9-9-9-6-|-(6)-6-6--6-6-6-7-|-7-7-9-7-7-7-9-7--|
|-5-5-5---5-5-5-7-|-(7)-7--7---7-7-7-4-|-(4)-4-4--4-4-4-5-|-5-5-5-5-5-5-5-5--|
|
| Q Q E E E E Q Q E E E E Q Q E E E E Q Q E E E E
|-----------------|--------------------|------------------|------------------|
|-----------------|--------------------|------------------|------------------|
|-----------------|--------------------|------------------|------------------|
|-7---7-----7---9-|--9-----9-----9---6-|--6----6----6---7-|-7---7-----7---7--|
|-7---7-----7---9-|--9-----9-----9---6-|--6----6----6---7-|-7---7-----7---7--|
|-5---5-----5---7-|--7-----7-----7---4-|--4----4----4---5-|-5---5-----5---5--|


A5 B5 E5
E E E E E E E E +E E E E E E E E
|-----------------|---------------------|
|-----------------|---------------------|
|-----------------|---------------------|
|-----------------|---------------------|
|-7-7-9---7-7-9-9-|-(9)-9-11---9-9-11-1-|
|-5-5-5---5-5-5-7-|-(7)-7--7---7-7--7-0-|
|
| Q Q E E E E Q Q E E E E
|-----------------|---------------------|
|-----------------|---------------------|
|-----------------|---------------------|
|-7---7-----7---9-|--9-----9-----9----2-|
|-7---7-----7---9-|--9-----9-----9----2-|
|-5---5-----5---7-|--7-----7-----7----0-|


E E E E E E E E +E E E E E E E E
|----------------------|--------------------||
|----------------------|--------------------||
|----------------------|--------------------||
|----------------------|--------------------||
|-2--2-4----2--2-4--2--|-(2)-2-4---2-2-4-7--||
|-0--0-0----0--0-0--0--|-(0)-0-0---0-0-0-5--||
|
| Q. E +E E E E +W
|-0------0-(0)------0--|-(0)----------------||
|-0------0-(0)-0-0-(0)-|-(0)----------------||
|-1------2-(2)---------|--------------------||
|----------------------|--------------------||
|----------------------|--------------------||
|----------------------|--------------------||


Chorus
A5 E5
Q. E Q E E +Q. E H
|-----------------|-------------------|
|-----------------|-------------------|
|-9-------9-------|-------------------|
|-7-------7-----9-|-(9)-------9-------|
|-------0-------7-|-(7)-------7-------|
|-------------0---|---------0---------|
|
| Q E E E E E E E E E E E E E E
|-----------------|-------------------|
|-----------------|-------------------|
|-----------------|-------------------|
|-----------------|-------------------|
|-7---9-7-7-7-9-7-|--2--2-4-2-2-2-4-2-|
|-5---5-5-5-5-5-5-|--0--0-0-0-0-0-0-0-|


A5 E5
Q. E Q E E +Q. E H
||------------------|---------------------||
||o-----------------|--------------------o||
||--9-------9-------|---------------------||
||--7-------7-----9-|-(9)-------9---------||
||o-------0-------7-|-(7)-------7--------o||
||--------------0---|---------0-----------||
|
| Q E E E E E E E E E E E E E E
||------------------|---------------------||
||o-----------------|--------------------o||
||------------------|---------------------||
||------------------|---------------------||
||o-7---9-7-7-7-9-7-|--2--2-4-2-2-2-4-2--o||
||--5---5-5-5-5-5-5-|--0--0-0-0-0-0-0-0---||


F#5 G#5 A5
Gtr V
W +E E Q E E E E W +H +E E E E
| | | | | | | | | | |
/ / / / / / / / / / /

Gtr IV
W +H Q Q W +H E E E E
|----------|------------------|----------|------------------|
|----------|------------------|----------|------------------|
|----------|------------------|----------|------------------|
|-4--------|-(4)------4---6---|-7--------|-(7)--------------|
|-4--------|-(4)------4---6---|-7--------|-(7)-----7-6-4-2--|
|-2--------|-(2)------2---4---|-5--------|-(5)-----5-4-2-0--|


E5 E6 E5 E6E5 E6 E5 E6 E5 E6 E5 E6E5
Q Q E E E E +E E Q E E Q Q Q E E E E W
| | | | | | | | | | | | | | | | | | |
/ / / / / / / / / / / / / / / / / / /

~~~~~~~~ ~~~~~~~~
Q Q E E E E +W Q Q E E E E +W
|----0--0-0-0---|-----------------|----0--0-0-0---|--------||
|----0--0-0-0-2-|-(2)-------------|----0--0-0-0-2-|-(2)----||
|-------------2-|-(2)-------------|-------------2-|-(2)----||
|---------------|-----------------|---------------|--------||
|-2-------------|-----------------|-2-------------|--------||
|-0-------------|-----------------|-0-------------|--------||


Bridge
C#m F# C#m F# C#m F#
Gtrs IV, V
W W W W W W
|-4--------|-^2--------|-4--------|-^2--------|-4--------|-^2----|
|-5--------|-^2--------|-5--------|-^2--------|-5--------|-^2----|
|-6--------|-^3--------|-6--------|-^3--------|-6--------|-^3----|
|-6--------|-^4--------|-6--------|-^4--------|-6--------|-^4----|
|-4--------|-^4--------|-4--------|-^4--------|-4--------|-^4----|
|----------|-^2--------|----------|-^2--------|----------|-^2----|


A5 F#m/A5 F#m/AB5 G#m/BB5 G#m/B B5 G#m/B5 G#m/B B5 G#m/BB5 G#mB5
Q E E E E Q E E E E E E E E E E Q E E E E E E E E E E E E
|---------------|-------------------|------------------|--------------------|
|---------------|-------------------|------------------|--------------------|
|---------------|-------------------|------------------|--------------------|
|---------------|-------------------|------------------|--------------------|
|-7--9-7-7-7-9--|-9-9-11-9-9-9-11-9-|-9-9-11--9-9-11-9-|-9-9-11-9-9-9-11-9--|
|-5--5-5-5-5-5--|-7-7--7-7-7-7--7-7-|-7-7--7--7-7--7-7-|-7-7--7-7-7-7--7-7--|


Guitar Solo
B5 A#5
Gtr VI
H E +E E E
|--------------------------||
|---------14b16r(14)p12----||
|-----------------------14-||
|--------------------------||
|--------------------------||
|--------------------------||
|
| Gtrs IV, V
| E E Q Q Q
|--------------------------||
|--------------------------||
|--------------------------||
|--------------------------||
|-9-9-11---9----------8----||
|-7-7--7---7----------6----||


A5 E5
~~~~ ~
a H +H E +E E E +E Q E
|----------------------|----------------------------|
|-9s10------(10)-------|--------------12-(12)-----0-|
|----------------------|-11b12r(11)-9---------9-----|
|----------------------|----------------------------|
|----------------------|----------------------------|
|----------------------|----------------------------|
|
| Q E E E E E E E E E E E E E E
|----------------------|----------------------------|
|----------------------|----------------------------|
|----------------------|----------------------------|
|----------------------|----------------------------|
|----7--9-----7--7-9-2-|--2------2--4--2---2--2-4-2-|
|----5--5-----5--5-5-0-|--0------0--0--0---0--0-0-0-|


A5 E5
~~~
a Q a H. E +E E E +Q. E
|-----------------------|-------------------0-----(0)-----|
|-9s10--9s10------------|-------------------0-----(0)---0-|
|-----------------------|-11b12r(11)-9-11-(11)b13---------|
|-----------------------|---------------------------------|
|-----------------------|---------------------------------|
|-----------------------|---------------------------------|
| H E +Q E
|
| Q E E E E E E E E E E E E E E
|-----------------------|---------------------------------|
|-----------------------|---------------------------------|
|-----------------------|---------------------------------|
|-----------------------|---------------------------------|
|----7-----9----7-7-9-2-|--2------2--4--2---2------2--4-2-|
|----5-----5----5-5-5-0-|--0------0--0--0---0------0--0-0-|


A5 E5
Q a Q +Q. E E +E E E +E Q E
|------------------------|----------------------------|
|-10--9s10---(10)-----10-|--------------12-(12)-----0-|
|------------------------|-11b13r(11)-9---------9-----|
|------------------------|----------------------------|
|------------------------|----------------------------|
|------------------------|----------------------------|
|
| Q E E E E E E E E E E E E E E
|------------------------|----------------------------|
|------------------------|----------------------------|
|------------------------|----------------------------|
|------------------------|----------------------------|
|--7-----9-----7--7-9--2-|--2------2--4--2---2--2-4-2-|
|--5-----5-----5--5-5--0-|--0------0--0--0---0--0-0-0-|


B5
~~~~~~~~~~~~
Q Q +Q. E
|------------------------------|
|-10b12---10b12---(10)------12-|
|------------------------------|
|------------------------------|
|------------------------------|
|------------------------------|
|
| E E E E E E E E
|------------------------------|
|------------------------------|
|------------------------------|
|------------------------------|
|--9----9-11----9---9--9-11--9-|
|--7----7--7----7---7--7--7--7-|


C#5
Q E E Q. +E H. E E
|-9b10=====9b11-9-9r=====(9)-|--9---------------------|
|----------------------------|------------------12-11-|
|----------------------------|------------------------|
|----------------------------|------------------------|
|----------------------------|------------------------|
|----------------------------|------------------------|
|
| E E E E E E Q Q E E E E E E
|----------------------------|------------------------|
|----------------------------|------------------------|
|----------------------------|------------------------|
|----------------------------|------------------------|
|-9-----9-11----9-9-9-11-----|-11---13-11-11-11-13--4-|
|-7-----7--7----7-7-7--7-----|--9----9--9--9--9--9--2-|


F#5 C#5 F#5
~~~~~~~ ~~~
+E. S E E +Q E E Q H S S E
|--------------------------------|-------------------9-12---|
|-(11)p==9--------------9-12b14==|=12--12r----------------9-|
|----------11-11-(11)------------|--------------------------|
|--------------------------------|--------------------------|
|--------------------------------|--------------------------|
|--------------------------------|--------------------------|
|
| +E E E E E E Q Q E E E E E E
|--------------------------------|--------------------------|
|--------------------------------|--------------------------|
|--------------------------------|--------------------------|
|--------------------------------|--------------------------|
|--(4)-4----6--4---4--4-6--------|-11--13--11-11-11-13----4-|
|--(2)-2----2--2---2--2-2--------|--9---9---9--9--9--9----2-|


E +S S E E +Q E E
|-14b16r(14)p12-14-14-(14)-----------|
|----------------------------0-12b14-|
|------------------------------------|
|------------------------------------|
|------------------------------------|
|------------------------------------|
|
| +E E E E E E Q
|------------------------------------|
|------------------------------------|
|------------------------------------|
|------------------------------------|
|-(4)-----4------6--4---4--4-6-------|
|-(2)-----2------2--2---2--2-2-------|


C#5 F#5
|--3---|
+Q E S S Q E E E
|--------9------12b14-----9--------|
|-(12)-----12-9-------------12---9-|
|----------------------------------|
|----------------------------------|
|----------------------------------|
|----------------------------------|
|
| Q E E E E E E
|----------------------------------|
|----------------------------------|
|----------------------------------|
|----------------------------------|
|--11---13-11---11----11-13----4---|
|---9----9--9----9-----9--9----2---|


G#5 A5
~~
|3-|
Q S S E Q E S E Q H E E
|-------9------12---9------|-19--19--------19--|
|-12------12-9--------12-9-|-------------------|
|--------------------------|-------------------|
|--------------------------|-------------------|
|--------------------------|-------------------|
|--------------------------|-------------------|
|
| +E E E E E E Q Q Q E E E E
|--------------------------|-------------------|
|--------------------------|-------------------|
|--------------------------|-------------------|
|--------------------------|-------------------|
|-(4)-4-6----4--4-4-6------|--7---7--7-7-7--9--|
|-(2)-2-2----2--2-2-4------|--5---5--5-5-5--7--|


B5 A#5 A#5 B5 A#5 B5
Q Q H +E E H E E
|-21----21b22---21b23-------|-(21)----------------------|
|---------------------------|---------------------------|
|---------------------------|------16-18b20-------18-16-|
|---------------------------|---------------------------|
|---------------------------|---------------------------|
|---------------------------|---------------------------|
|
| +E E E E E E E E E E E E E E E E
|---------------------------|---------------------------|
|---------------------------|---------------------------|
|---------------------------|---------------------------|
|---------------------------|---------------------------|
|-(9)-9--9----9--8----9-9-8-|---9---9--9----9-8-9--9--9-|
|-(7)-7--7----7--6----7-7-6-|---7---7--7----7-6-7--7--7-|


A#5
|----3----|
E E +E E E E E E Q Q Q Q Q
|------------------------------------|-------------------------|
|------------------19-------16-------|-16----------------------|
|-18-18b20r(18)-16----18b20----18b20-|------18---16---18--16---|
|------------------------------------|-------------------------|
|------------------------------------|-------------------------|
|------------------------------------|-------------------------|
|
| E E E E E E E E E E E E Q Q
|------------------------------------|-------------------------|
|------------------------------------|-------------------------|
|------------------------------------|-------------------------|
|------------------------------------|-------------------------|
|--9--9------9---9--9--9-----9--9----|--9-9----9----9--9---8---|
|--7--7------7---7--7--7-----7--7----|--7-7----7----7--7---6---|


Chorus
A5 A5 E5
Gtr VI
~~~ ~~~~
H. +E E H.. E
|----------------------|-------------------------|
|----------------------|-------------------------|
|-14-----------(14)s13-|-13---------------11b13==|
|----------------------|-------------------------|
|----------------------|-------------------------|
|----------------------|-------------------------|
|
| Gtr IV
| Q. E Q E E +Q. E H
|----------------------|-------------------------|
|----------------------|-------------------------|
|--9-------9-----------|-------------------------|
|--7-------7---------9-|-(9)--------9------------|
|--------0-----------7-|-(7)--------7------------|
|----------------0-----|----------0--------------|
|
| Gtr V
| Q E E E E E E E E E E E E E E
|----------------------|-------------------------|
|----------------------|-------------------------|
|----------------------|-------------------------|
|----------------------|-------------------------|
|--7---9-7-7-7---9---7-|--2---2-4-2-2-2-4--2-----|
|--5---5-5-5-5---5---5-|--0---0-0-0-0-0-0--0-----|


A5 E5
~~~
+H. +E E W
|----------------------|--------------------|
|----------------------|--------------------|
|-(11)r=========(11)-9-|--9-----------------|
|----------------------|--------------------|
|----------------------|--------------------|
|----------------------|--------------------|
|
| Q. E Q E E +Q. E H
|----------------------|--------------------|
|----------------------|--------------------|
|---9-------9----------|--------------------|
|---7-------7--------9-|-(9)-------9--------|
|---------0----------7-|-(7)-------7--------|
|-----------------0----|---------0----------|
|
| Q E E E E E E E E E E E E E E
|----------------------|--------------------|
|----------------------|--------------------|
|----------------------|--------------------|
|----------------------|--------------------|
|---7---9-7-7-7---9--7-|--2--2-4-2-2-2-4-2--|
|---5---5-5-5-5---5--5-|--0--0-0-0-0-0-0-0--|


A5 E5
Gtr IV
Q. E Q E E +Q. E H
||------------------|-------------------|
||o-----------------|-------------------|
||--9-------9-------|-------------------|
||--7-------7-----9-|-(9)-------9-------|
||o-------0-------7-|-(7)-------7-------|
||--------------0---|---------0---------|
|
| Gtr V
| Q E E E E E E E E E E E E E E
||------------------|-------------------|
||o-----------------|-------------------|
||------------------|-------------------|
||------------------|-------------------|
||o-7---9-7-7-7-9-7-|--2--2-4-2-2-2-4-2-|
||--5---5-5-5-5-5-5-|--0--0-0-0-0-0-0-0-|


1.
A5 E5
Q. E Q E E +Q. E H
|-----------------|--------------------||
|-----------------|-------------------o||
|-9-------9-------|--------------------||
|-7-------7-----9-|-(9)-------9--------||
|-------0-------7-|-(7)-------7-------o||
|-------------0---|---------0----------||
|
| Q E E E E E E E E E E E E E E
|-----------------|--------------------||
|-----------------|-------------------o||
|-----------------|--------------------||
|-----------------|--------------------||
|-7---9-7-7-7-9-7-|--2--2-4-2-2-2-4-2-o||
|-5---5-5-5-5-5-5-|--0--0-0-0-0-0-0-0--||


2.
E5 A5 E5
Gtr VI
Q E E +H H. +E E
|-------------------------|--------------------|
|-------------------------|--------------------|
|--------9pb11==(9)r======|=9-----------(9)s13-|
|-------------------------|--------------------|
|-------------------------|--------------------|
|-------------------------|--------------------|
|
| Gtr IV
| Q. E H Q. E Q E E
|-------------------------|--------------------|
|-------------------------|--------------------|
|-------------------------|-9-------9----------|
|-9--------------9--------|-7-------7--------9-|
|-7--------------7--------|-------0----------7-|
|--------0----------------|--------------0-----|
|
| Gtr V
| E E E E E E E E Q E E E E E E
|-------------------------|--------------------|
|-------------------------|--------------------|
|-------------------------|--------------------|
|-------------------------|--------------------|
|-2--2-4-2-------2--2-4-2-|-7---9-7-7-7--9---7-|
|-0--0-0-0-------0--0-0-0-|-5---5-5-5-5--5---5-|


A5 E5
+H. E E +H H
|--------------------------|---------------------|
|----------------12--------|---------------------|
|-(13)---------------------|---------------------|
|-------------------14b16==|=(14)r=====14--------|
|--------------------------|---------------------|
|--------------------------|---------------------|
|
| Q. E H Q. E Q E E
|--------------------------|---------------------|
|--------------------------|---------------------|
|--------------------------|---9--------9--------|
|---9--------9-------------|---7--------7-----9--|
|---7--------7-------------|---------0--------7--|
|----------0---------------|----------------0----|
|
| E E E E E E E E Q E E E E E E
|--------------------------|---------------------|
|--------------------------|---------------------|
|--------------------------|---------------------|
|--------------------------|---------------------|
|---2--2-4-2-2-2--4--2-----|---7---9-7--7-7-9-7--|
|---0--0-0-0-0-0--0--0-----|---5---5-5--5-5-5-5--|


B5
~~~~~~~~~~~~~~~~~~
a E Q. +Q +E E +H +E E E E
|---------------------------|---------------------------|
|------------------------19-|-(19)--------(19)-17-16-17-|
|---------------------------|---------------------------|
|-9s11s9------(9)---(9)/----|---------------------------|
|---------------------------|---------------------------|
|---------------------------|---------------------------|
|
| Q. E H E E E E E E E E
|---------------------------|---------------------------|
|---------------------------|---------------------------|
|---------------------------|---------------------------|
|----9---------9------------|---9--9--9-9---9---9--9--9-|
|----7---------7------------|---9--9--9-9---9---9--9--9-|
|-----------0---------------|---7--7--7-7---7---7--7--7-|
|
| E E E E E E E E E E E E E E E E
|---------------------------|---------------------------|
|---------------------------|---------------------------|
|---------------------------|---------------------------|
|---------------------------|---------------------------|
|----2-2--4-2--2--2--4----2-|---9--9-11-9---9---9-11--9-|
|----0-0--0-0--0--0--0----0-|---7--7--7-7---7---7--7--7-|


~~
+Q H Q E E E +E E E E E
|--------------------------|------------------------------|
|-(17)---16----------------|----19------------------------|
|-----------------18b20====|=18----18r(18)-16-18-16-18b20-|
|--------------------------|------------------------------|
|--------------------------|------------------------------|
|--------------------------|------------------------------|
|
| E E E E E E E E E E E E E E E E
|--------------------------|------------------------------|
|--------------------------|------------------------------|
|--------------------------|------------------------------|
|---9--9--9-9-9-9--9-----9-|--9--9--9---9---9--9--9--9----|
|---9--9--9-9-9-9--9-----9-|--9--9--9---9---9--9--9--9----|
|---7--7--7-7-7-7--7-----7-|--7--7--7---7---7--7--7--7----|
|
| E E E E E E E E E E E E E E E E
|--------------------------|------------------------------|
|--------------------------|------------------------------|
|--------------------------|------------------------------|
|--------------------------|------------------------------|
|---9--9-11-9-9-9-11-----9-|--9--9-11---9---9--9-11--9----|
|---7--7--7-7-7-7--7-----7-|--7--7--7---7---7--7--7--7----|


A5
~~~~
+E E Q E E Q +W +W
|---------------------------|-------------|---------||
|------19-------------------|-------------|---------||
|-(18)----16------16--------|-------------|---------||
|--------------18----19b21r=|=(19)--------|-(19)----||
|---------------------------|-------------|---------||
|---------------------------|-------------|---------||
|
| E E E E Q Q W +W
|---------------------------|-------------|---------||
|---------------------------|-------------|---------||
|---------------------------|-------------|---------||
|---9---9--9-9--9-----9-----|---7---------|--(7)----||
|---9---9--9-9--9-----9-----|---7---------|--(7)----||
|---7---7--7-7--7-----7-----|---5---------|--(5)----||
|
| E E E E Q Q W +W
|---------------------------|-------------|---------||
|---------------------------|-------------|---------||
|---------------------------|-------------|---------||
|---------------------------|-------------|---------||
|---9---9-11-9--9-----9-----|---7---------|--(7)----||
|---7---7--7-7--7-----7-----|---5---------|--(5)----||


Outro
A5 B5 G#5
Gtr VI
+W +W
|------------------|-------------------|
|------------------|-------------------|
|------------------|-------------------|
|-(19)-------------|-(19)--------------|
|------------------|-------------------|
|------------------|-------------------|
|
| Gtrs IV, V
| +W +W
|------------------|-------------------|
|------------------|-------------------|
|------------------|-------------------|
|------------------|-------------------|
|--(7)-------------|--(7)--------------|
|--(5)-------------|--(5)--------------|
|
| Gtr I
| Q Q E E E E +Q E E E E E E
|------------------|-------------------|
|------------------|-------------------|
|------------------|-------------------|
|---7---7----7---9-|--(9)--9-----9---6-|
|---7---7----7---9-|--(9)--9-----9---6-|
|---5---5--x-5---7-|--(7)--7---x-7---4-|


F#G#A5 G#A5G#5
>
+W W
|-------------------|--------------------|
|-------------------|--------------------|
|-------------------|--------------------|
|-(19)--------------|--------------------|
|-------------------|--------------------|
|-------------------|--------------------|
|
| >
| +W W
|-------------------|--------------------|
|-------------------|--------------------|
|-------------------|--------------------|
|-------------------|--------------------|
|--(7)--------------|--------------------|
|--(5)--------------|--------------------|
|
| +Q E E E E E E +Q E E E E E E
|-------------------|--------------------|
|-------------------|--------------------|
|-------------------|--------------------|
|--(6)--6-----4s6-7-|-(7)--7-----6s7-6s==|
|--(6)--6-----4s6-7-|-(7)--7-----6s7-6s==|
|--(4)--4---x-2s4-5-|-(5)--5---x-4s5-4s==|


A5 A5 A5 B5 E5
Gtr I
Q E E E E E E +Q E E E E E E +Q Q E E E E
|----------------|------------------|-----------------|
|----------------|------------------|-----------------|
|----------------|------------------|-----------------|
|-7--7-----7---9-|-(9)--9-----9---2-|-(2)--2----2---2-|
|-7--7-----7---9-|-(9)--9-----9---2-|-(2)--2----2---2-|
|-5--5---x-5---7-|-(7)--7---x-7---0-|-(0)--0--0-0-0-0-|


F#5 G5 G#5 A5
E E E E E E E E Q H.
|-----------------|----------*|
|-----------------|----------*|
|-----------------|----------*|
|-2---------------|----------*|
|-2-2-4-4-5-5-6-6-|-7--------*|
|-0-0-2-2-3-3-4-4-|-5--------*|




--------------------------------------------------------------------------------


Duration Legend
---------------
W - whole; H - half; Q - quarter; E - 8th; S - 16th; T - 32nd; X - 64th; a - acciaccatura
+ - note tied to previous; . - note dotted; .. - note double dotted
Uncapitalized letters represent notes that are staccato (1/2 duration)
Irregular groupings are notated above the duration line
Duration letters will always appear directly above the note/fret number it represents the
duration for. Duration letters with no fret number below them represent rests. Multi-
bar rests are notated in the form Wxn, where n is the number of bars to rest for. Low
melody durations appear below the staff

Tablature Legend
----------------
h - hammer-on
p - pull-off
b - bend
pb - pre-bend
r - bend release (if no number after the r, then release immediately)
/\ - slide into or out of (from/to "nowhere")
s - legato slide
S - shift slide
- natural harmonic
[n] - artificial harmonic
n(n) - tapped harmonic
~ - vibrato
tr - trill
T - tap
TP - trem. picking
PM - palm muting
\n/ - tremolo bar dip; n = amount to dip
\n - tremolo bar down
n/ - tremolo bar up
/n\ - tremolo bar inverted dip
= - hold bend; also acts as connecting device for hammers/pulls
- volume swell (louder/softer)
x - on rhythm slash represents muted slash
o - on rhythm slash represents single note slash

Misc Legend
-----------
| - bar
|| - double bar
||o - repeat start
o|| - repeat end
*| - double bar (ending)
: - bar (freetime)
$ - Segno
& - Coda
Tempo markers - = BPM(8/16=s8/s16), where s8 = swing 8ths, s16 = swing 16ths



Like us on Facebook.....
-> Loading Time :0.0323 sec