Situation Tabs & Lyrics by Godsmack

Situation

guitar tabs lyrics

Godsmack

Album : Godsmack hard rock PlayStop



band - godsmack
song -situation
album - godsmack


Intro:
e|------------------------------------------------------------|
B|------------------------------------------------------------|
G|-8\7-7--7--7-7-8\7-7-7--7-7-7-8\7-7-7--7-7-8\7-7--10--------|
D|-8\7-7--7--7-7-8\7-7-7--7-7-7-8\7-7-7--7-7-8\7-7--10--0-1-3-|

A|-6\5-5--5--5-5-6\5-5-5--5-5-5-6\5-5-5--5-5-6\5-5---8--0-1-3-|
D|------------------------------------------------------0-1-3-|

e|---------------------------------------------------------------|
B|---------------------------------------------------------------|
G|---------7--7--7--8\7-7-7--7-7-7-8\7-7-7--7-7-8\7-7--10--------|
D|-1-0-0---7--7--7--8\7-7-7--7-7-7-8\7-7-7--7-7-8\7-7--10--0-1-3-|
A|-1-0-0---5--5--5--6\5-5-5--5-5-5-6\5-5-5--5-5-6\5-5---8--0-1-3-|
D|-1-0-0---------------------------------------------------0-1-3-|

Verse:
e|----||
B|----||
B|----||
D|-0--||
A|-0--||
D|-0--||

Verse:
e|--------|
B|--------|
G|--------|
D|-1-0-0--|
A|-1-0-0--|
D|-1-0-0--|

Interlude:
e|-----------------------------------------------------------------|
B|-----------------------------------------------------------------|
G|-----------------------------------------------------------------|
D|-3---3-3----1-1---1-1----0-1-3----0-0---0-0---0-0---0-0--0-0-1-3-|
A|-3---3-3----1-1---1-1----0-1-3----0-0---0-0---0-0---0-0--0-0-1-3-|
D|-3---3-3p0--1-1---1-1p0--0-1-3p0--0-0---0-0---0-0---0-0--0-0-1-3-|

e|--------------------------------------------------------------|
B|--------------------------------------------------------------|
G|-------------------------4------------------------------------|
D|--0-0---0-0---0-0---0-0--3----0-0--0-0--0-0--0-0--0-0---0-1-3-|
A|--0-0---0-0---0-0---0-0--2----0-0--0-0--0-0--0-0--0-0---0-1-3-|
D|--0-0---0-0---0-0---0-0-------0-0--0-0--0-0--0-0--0-0---0-1-3-|

e|----------------------------|
B|----------------------------|
G|-------------------------4--|
D|--0-0---0-0---0-0---0-0--3--|
A|--0-0---0-0---0-0---0-0--2--|
D|--0-0---0-0---0-0---0-0-----|

Bridge:
e|------------------------------------------------------------|
B|------------------------------------------------------------|
G|-/7---7-7-7-7---7-7---8--5---/7---7-7--7---7-7-7-8-10--8/7--|
D|-/x---x-x-x-x---x-x---x--x---/x---x-x--x---x-x-x-x--x--x/x--|
A|-/5---5-5-5-5---5-5---6--3---/5---5-5--5---5-5-5-6--8--6/5--|
D|------------------------------------------------------------|

e|------------------------------------------------------------|
B|------------------------------------------------------------|
G|-7---7-7-7---7-7--8--5---/7---7-7---------------------------|
D|-----0-0-0---x-x--x--x---/x---x-x---7-7---7-7-7-7-7-7-7-----|
A|-5---5-5-5---5-5--6--3---/5---5-5---x-x---x-x-x-x-x-x-x-----|
D|------------------------------------7-7---7-7-7-7-7-7-7-----|

e|----------------------------------|
B|-----------------7-7-7------------|
G|-/7---7-7--7-----7-7-7---5--8-----|
D|-/x---x-x--x-----7-7-7---x--x--3--|
A|-/5---5-5--5-----5-5-5---3--6--3--|
D|-------------------------------3--|

Guitar Solo: w/wah
e|-------------------13------------------------------------|
B|-----------13--13---------13-----------------------13^---|
G|-/12---14---------------------14--14#-----13---13--------|
D|----------------------------------w/bar------------------|
A|---------------------------------------------------------|
D|---------------------------------------------------------|

e|--------------------------------------------------------------|
B|-10h13p10----10--------10--13^--------------------------------|
G|----------12----10-12^-----12----12^--10h12p10----------------|
D|-----------------------------------------------10-10-10h12p10-|
A|--------------------------------------------------------------|
D|--------------------------------------------------------------|

e|--------------------------------------------------------------|
B|---------------------------------------------------10h13p10---|
G|----10----------------10---10h12h13p12p10----10-12^--------12-|
D|-12----12p10-12-10h12----12---------------12------------------|
A|--------------------------------------------------------------|
D|--------------------------------------------------------------|

e|--------------------10---------------------------------------|
B|-10p13p10----10-13^----13^--13^-\------10-13p10--------------|
G|----------12----------------------/12^----------12^-10--\2/x-|
D|-------------------------------------------------------------|
A|-------------------------------------------------------------|
D|-------------------------------------------------------------|

e|---------------16---------16------------16------------16----|
B|-13-13-13-13-15--15-13-15---15-15-13-15---15-15-13-15-------|
G|------------------------------------------------------------|
D|------------------------------------------------------------|
A|------------------------------------------------------------|
D|------------------------------------------------------------|

e|-------------16--------------------------------------------------|
B|-15-15-13-15-----15-13-15--13-15-12-12-12--12\-------------------|
G|-----------------------------------------------0-12^-12^-12^-12^-|
D|-----------------------------------------------------------------|
A|-----------------------------------------------------------------|
D|-----------------------------------------------------------------|

e|------------------------------------------------------------|
B|-------------10h13p10---------------------------------------|
G|--12^--12^------------12^----10--------------------12-------|
D|----------------------------------10---------\-----10--10^--|
A|------------------------------------------------------------|
D|------------------------------------------------------------|
tremolo pick *********************
e|-------------------17----------|-----13-----13------13---|
B|-----------15-------------15---|-12--12--12-12--12--12---|
G|-7^----------------------------|-------------------------|
D|-------------------------------|--w/wah------------------|
A|-------------------------------|-------------------------|
D|-------------------------------|-------------------------|

e|---------------22--22--22--22--------------22--22--22--22---||
B|-21212121212121--21--21--21--21212121212121--21--21--21--21-||
G|------------------------------------------------------------||
D|------------------------------------------------------------||
A|------------------------------------------------------------||
D|------------------------------------------------------------||

e|-------------------------22--22--||
B|-21-21-21-21-21-21-21-21---21----||
G|---------------------------------||
D|---------------------------------||
A|---------------------------------||
D|---------------------------------||

Like us on Facebook.....
-> Loading Time :0.0092 sec