Catholic Boy Tabs & Lyrics by Dead Boys

Catholic Boy

guitar tabs lyrics

Dead Boys

Album : All This and MorePlayStop



-------------------------------------------------------------------------------
I Don't Wanna Be No Catholic Boy - Dead Boys
-------------------------------------------------------------------------------
Tabbed by: Michel de Bruyn
Email: miesisback@hotmail.com

Tuning: Standard


Intro


E-----------------|
B-----------------|
G-2-2-------------|
D-2-2-------------| x 8
A-0-0-3-2-0-------|
E-----------3-----|

E-------------------------|
B-------------------------|
G-2-2---------------------|
D-2-2---------------------| x 4
A-0-0-3-2-0----0-0---0----|
E-----------3------3------|

verse x 2

E----------------------------------------------------|
B----------------------------------------------------|
G--2-2-2-2-2-2--5-5-5-5-5-5--2-2-2-2-2-2-------------|
D--2-2-2-2-2-2--5-5-5-5-5-5--2-2-2-2-2-2--2-2-2-2-2-2|
A--0-0-0-0-0-0--3-3-3-3-3-3--0-0-0-0-0-0--2-2-2-2-2-2|
E-----------------------------------------0-0-0-0-0-0|

E-----------------------------------------|
B-----------------------------------------|
G--2-2-2-2-2-2--5-5-5-5-5-5--4-4-4-4-4-4--|
D--2-2-2-2-2-2--5-5-5-5-5-5--4-4-4-4-4-4--|
A--0-0-0-0-0-0--3-3-3-3-3-3--2-2-2-2-2-2--|
E-----------------------------------------|

chorus x 1

E--------------------------|
B--------------------------|
G--7--7-7-7----------------|
D--7--7-7-7----------------| x 3
A--5--5-5-5---0-2-3-4-5----|
E--------------------------|


E---------------------------|
B---------------------------|
G-5-5-5-5-5-5--4-4-4-4-4-4--|
D-5-5-5-5-5-5--4-4-4-4-4-4--|
A-3-3-3-3-3-3--2-2-2-2-2-2--|
E---------------------------|

verse x 1

bridge x 1
E-------------------------|
B-------------------------|
G-2-2---------------------|
D-2-2---------------------| x 2
A-0-0-3-2-0----0-0---0----|
E-----------0------3------|

verse x 2

chorus x 1

verse x 1

then during solo:

E--------------------------|
B--------------------------|
G--7--7-7-7----------------|
D--7--7-7-7----------------| x 3
A--5--5-5-5---0-2-3-4-5----|
E--------------------------|

E---------------------------|
B---------------------------|
G-5-5-5-5-5-5--4-4-4-4-4-4--|
D-5-5-5-5-5-5--4-4-4-4-4-4--|
A-3-3-3-3-3-3--2-2-2-2-2-2--|
E---------------------------|

verse x 1

outro
E-------------------------|
B-------------------------|
G--2-2-2-2--8--7--5-------|
D--2-2-2-2--8--7--5-------| x2
A--0-0-0-0--6--5--3-------|
E-------------------------|

E-----------------------------|
B-----------------------------|
G------------------2----------|
D------------------2----------|
A--3-2-0-3-2-0-3-2-0----------|
E-----------------------------|
end

Enjoy!

| / slide up
| \ slide down
| h hammer-on
| p pull-off
| ~ vibrato
| + harmonic
| x Mute note
===============================================================================

Like us on Facebook.....
-> Loading Time :0.0062 sec