Bleeding Tabs & Lyrics by Ignite

Bleeding

guitar tabs lyrics

Ignite

Album : Our Darkest Days melodic hardcore PlayStop



Track: Bleeding
Band: Ignite
Album: Darkest Days
Tuning: Drop D

* = mute

Intro
E|-------------------------------|
B|-------------------------------|

G|-7-7-7-------7-7-7-------------|
D|-7-7-7-0-0-0-7-7-7-0-0-0-0-0-0-| x3
A|-5-5-5-0-0-0-5-5-5-0-0-0-0-0-0-|
D|-------0-0-0-------0-0-0-0-0-0-|
* * *

E|---------------------------------|
B|---------------------------------|
G|---------------------------------|
D|-0-0-0-0-0-0-0-0-0-0-0-0-0-0-0-0-|
A|-0-0-0-0-0-0-0-0-0-0-0-0-0-0-0-0-|
D|-0-0-0-0-0-0-0-0-0-0-0-0-0-0-0-0-|
* * * * * * * * * * * * * * * *

Main Riff
E|-----------------------------------------|
B|-----------------------------------------|
G|-7-7-7-7-7-7-7-7-10-10-10-10-10-10-10-10-|
D|-7-7-7-7-7-7-7-7-10-10-10-10-10-10-10-10-|
A|-5-5-5-5-5-5-5-5-8--8--8--8--8--8--8--8--|
D|-----------------------------------------|

E|---------------------------------|
B|---------------------------------|
G|---------------------------------|
D|-8-8-8-8-8-8-8-8-5-5-5-5-5-5-5-5-|
A|-8-8-8-8-8-8-8-8-5-5-5-5-5-5-5-5-| Repeat (second time mute the G5)
D|-8-8-8-8-8-8-8-8-5-5-5-5-5-5-5-5-|

E|-----------------------|
B|-----------------------|
G|-----------------------|
D|-0~-----Pick scrape----| (

Like us on Facebook.....
-> Loading Time :0.0071 sec