Barf Tabs & Lyrics by Pulley

Barf

guitar tabs lyrics

Pulley

Album : Esteem Driven Engine melodic hardcore PlayStop



BARF - Pulley


By: jeff [email protected] http://www.punkbands.com/pulley

Riff one:
|---------------------------------- |-------------
|---------------------------------- |-------------
|-12-12-12-11-11-11--9--9--9------- |-3-3-3------- chords played between
|-10-10-10-10-10-10-10-10-10------- |-3-3-3-3-3-3- and end of riffs

|---------------------------------- |-1-1-1-3-3-3-
|---------------------------------- |-------1-1-1-

Verses:
|---------------------------------
|---------------------------------
|-----------------------5-5-5-5-5- x 4
|-5-5-5-5-5-5-3-3-3-3-3-5-5-5-5-5-
|-5-5-5-5-5-5-3-3-3-3-3-3-3-3-3-3-
|-3-3-3-3-3-3-1-1-1-1-1-----------

Riff two: the start of this riff isn't quite right so work around it.
|-------------------------
|-------------------------
|------------------------- x 3 and reapeat pwr
|------2-3-5-5--10-10-9-9- chords on third time.
|-3-3------------8--8-7-7-
|-------------------------

tonight tonight...............
|-----------------------------------------------
|-------------------------------------10-10-9-9-
|-5-5-5-5-5-5-5-5-5-5-5-5-5-5-5-5-5-5-10-10-9-9- x 2
|-5-5-5-5-5-5-5-5-5-5-5-5-5-5-5-5-5-5-8--8--7-7-
|-3-3-3-3-3-3-3-3-3-3-3-3-3-3-3-3-3-3-----------
|_pm_| |_pm_| |_pm_|

I know inside that you're afraid...........
|-----------------------------------------------------------------------
|-----------------------------------------------------------------------
|-10-10-10-10-9-9-9-9-7-7-7-5---10-10-10-10-9-9-9-9-7---------7---------
|-10-10-10-10-9-9-9-9-7-7-7-5-5-10-10-10-10-9-9-9-9-7-5-5-5-5-7-5-5-5-5-
|--8--8--8--8-7-7-7-7-5-5-5-3-5--8--8--8--8-7-7-7-7-5-5-5-5-5-5-5-5-5-5-
|-----------------------------3-----------------------3-3-3-3---3-3-3-3-

|-----------------------------------------------------------
|-----------------------------------------------------------
|-10-10-10-10-9-9-9-9-7-7-7-5---------10-10-10-10-9-9-9-9-7-
|-10-10-10-10-9-9-9-9-7-7-7-5-5-5-5-5-10-10-10-10-9-9-9-9-7-
|--8--8--8--8-7-7-7-7-5-5-5-3-5-5-5-5--8--8--8--8-7-7-7-7-5-
|-----------------------------3-3-3-3-----------------------

after that and the riff play this

mucking around in the background bit
|----------------------------------------------------------------------
|----------------------------------------------------------------------
|-5-5-5-5-5-8-8-8-8-8-7-x-x-x-7-7-7-7-7-7-5-5-5-5-5-8-8-8-8-8-12-x-x-x-
|-5-5-5-5-5-8-8-8-8-8-7-x-x-x-7-7-7-7-7-7-5-5-5-5-5-8-8-8-8-8-12-x-x-x-
|-3-3-3-3-3-6-6-6-6-6-5-x-x-x-5-5-5-5-5-5-3-3-3-3-3-6-6-6-6-6-10-x-x-x-
|----------------------------------------------------------------------

|-------------------
|-------------------
|-12-12-12-12-12-12- x 2 last bar on the last
|-12-12-12-12-12-12- time without mutes.
|-10-10-10-10-10-10-
|-------------------

Like us on Facebook.....
-> Loading Time :0.0086 sec