Working With Meat Tabs & Lyrics by Jack Off Jill

Working With Meat

guitar tabs lyrics

Jack Off Jill

Album : Sexless Demons and Scars albums i own PlayStop


Working With Meat (guitar)
by Jack Off Jill
Tabbed by Ottis (GoblinKing9@yahoo.com)


e----------------------------------
B----------------------------------
G--6-6-6-6-6-------6-6-6-6-6-------
D--6-6-6-6-6-------6-6-6-6-6-------
A--4-4-4-4-4-------4-4-4-4-4-------

E----------------------------------

e------------------------------------------
B------------------------------------------
G--6-6-6-6-6---8-9-8---6-6-6-6-6---8-9-8---
D--6-6-6-6-6---8-9-8---6-6-6-6-6---8-9-8---
A--4-4-4-4-4---6-7-6---4-4-4-4-4---6-7-6---
E------------------------------------------
"We are desensitized..I lost my only friend"
(Also: "we are desensitized..shove comfort up my nose" in 2nd verse)

e--------------------------------------
B--------------------------------------
G--6-6-6-6-6---8-9---6-6-6-6-6---9-8---
D--6-6-6-6-6---8-9---6-6-6-6-6---9-8---
A--4-4-4-4-4---6-7---4-4-4-4-4---7-6---
E--------------------------------------
Chorus

Like us on Facebook.....
-> Loading Time :0.0073 sec