Animal Instinct Tabs & Lyrics by Six Feet Under

Animal Instinct

guitar tabs lyrics

Six Feet Under

Album : Warpath death metal PlayStop


Band- Six Feet Under
Song- Animal Instinct

INTRO - Pick all low open D's 2x faster than shown
|------------------------|
|------------------------|
|------------------------|
|-5----------------------|
|-5----------------------|
|-3--0-0-0-0-0-0-0-0-0-0-|


Play the above riff once and then keep alternating between the following 2
|------------------------------|
|------------------------------|
|------------------------------|
|-8--7--5----------------------|
|-8--7--5----------------------|
|-6--5--3--0-0-0-0-0-0-0-0-0-0-|

|------------------------------|
|------------------------------|
|------------------------------|
|-3--2--5----------------------|
|-3--2--5----------------------|
|-1--0--3--0-0-0-0-0-0-0-0-0-0-|

VERSE - Keep alternating
|------------------------------|
|------------------------------|
|------------------------------|
|-8--7--5----------------------|
|-8--7--5----------------------|
|-6--5--3--0-0-0-0-0-0-0-0-0-0-|

|------------------------------|
|------------------------------|
|------------------------------|
|-3--2--5----------------------|
|-3--2--5----------------------|
|-1--0--3--0-0-0-0-0-0-0-0-0-0-|

CHORUS
|---------------------|
|---------------------|
|-8----7--------------|
|-8----7----5----3----|
|-6----5----5----3----|
|-6----5----3----1----|

VERSE 2 - Same

CHORUS 2 - Same

INTERLUDE
|----------------------------|
|----------------------------|
|-------------3--3-3-3-3-3-3-|
|-------5-----3--3-3-3-3-3-3-|
|-------5-----1--1-1-1-1-1-1-|
|-0-0-0-3-0-0-1--1-1-1-1-1-1-|
..... ...

|----------------------------|
|----------------------------|
|-------------5--5-5-5-5-5-5-|
|-------5-----5--5-5-5-5-5-5-|
|-------5-----3--3-3-3-3-3-3-|
|-0-0-0-3-0-0-3--3-3-3-3-3-3-|
..... ...

BRIDGE
|---------------------------------|
|---------------------------------|
|-----------5-----7-----------5---|
|-7/8\7---5-5-----7-----5---5-5-5-|
|-7/8\7---5-3-----5-----5---5-3-5-|
|-5/6\5-0-3-3-0-0---0-0-3-0-3-3-3-|
. ... ... .

|---------------------------------|
|---------------------------------|
|-----------5-----7-----------5---|
|-7/8\7---5-5-----7-----5---5-5---|
|-7/8\7---5-3-----5-----5---5-3---|
|-5/6\5-0-3-3-0-0---0-0-3-0-3-3---|
. ... ... .

INTERLUDE 2 - Same

BRIDGE 2 - Same

VERSE 3 - Same

CHORUS 3 - Same

End on
|------|
|------|
|------|
|-2----|
|-2----|
|-0----|

Like us on Facebook.....
-> Loading Time :0.0083 sec