Walpurgis Night Tabs & Lyrics by Enthroned

Walpurgis Night

guitar tabs lyrics

Enthroned

Album : Regie Sathanas: A Tribute to Cernunnos black metal PlayStop


Band- Enthroned
Song- Walpurgis Night

tune normal

Riff:1
|-------------------------------------------------------------------|
|-------------------------------------------------------------------|
|-------------------------------------------------------------------|
|-----------------------------------(5)----5-5-----------(2)~~------|

|--(2)----2-2-(3)----3-3-(2)----2-2-(3)----3-3-----------(0)~~------|
|--(0)----0-0-(1)----1-1-(0)----0-0---------------------------------|


Riff:2
|-------------------------------------------------------------------|
|-------------------------------------------------------------------|
|-------------------------------------------------------------------|
|-------------------------------------------------------------------|
|----757--8--10-8----757--5--787----757--8--10-8----757--3-2--------|
|--5---------------5--------------5---------------5---------3-------|


Riff:3 Riff:4
|------------------------------------|------------------------------|
|------------------------------------|------------------------------|
|------------------------------------|------------------------------|
|--2-----2-----5----2-----2-----7-3--|--222999101010-555444-7-3-----|
|--0-000-0-5---3-0--0-000-0-5---5-1--|--0007778-8-8--333222-5-1-----|
|----------3-0--------------3-0------|------------------------------|

Cont. Riff:5
|------------------------|------------------------------------------|
|------------------------|------------------------------------------|
|------------------------|------------------------------------------|
|--222999101010-555444-7-|--9991010999-555444555-77788777-333222333-|
|--0007778-8-8--333222-5-|--7777-7-777-333222333-55555555-111000111-|
|------------------------|------------------------------------------|

Riff:6
|-------------------------------------------------------------------|
|-------------------------------------------------------------------|
|-------------------------------------------------------------------|
|--7--9-10-----9-10------9-10-12-10-9-10----------------------------|
|--5--7-8---8--7-8---10--7-8--10-8--7-8-----------------------------|
|-----------6--------8----------------------------------------------|

Riff:7
|-------------------------------------------------------------------|
|-------------------------------------------------------------------|
|-------------------------------------------------------------------|
|-------------------------------------------------------------------|Gtr1
|--555-878-----878-----878--101010-878------------------------------|
|----------666-----888----------------------------------------------|
|
|-------------------------------------------------------------------|
|-------------------------------------------------------------------|
|-------------------------------------------------------------------|
|--7----------------------------------------------------------------|Gtr2
|--5-------8-------(10)---------------------------------------------|
|----------6-------(8)----------------------------------------------|

Riff:8
|--------------------|----------------------------------------------|
|--------------------|----------------------------------------------|
|--------------------|----------------------------------------------|
|-999--545--999--4-5-|-222-555-444-999-555-444-222-777-5545-999-545-|
|-777--323--777--2-3-|-000-333-222-777-333-222-000-555-3323-777-323-|
|--------------------|----------------------------------------------|

Riff:9a
|-------------------------------------------------------------------|
|-------------------------------------------------------------------|
|-------------------------------------------------------------------|
|----------------7------h--p----------------------------------------|
|--7--7-9-10-9-7----10-9-10-9--7--7-9-10-9-7--5-7-9-----------------|
|-------------------------------------------------------------------|

Riff:9b
|-------------------------------------------------------------------|
|-------------------------------------------------------------------|
|----------------7------h--p----------------------------------------|
|--7--7-9-10-9-7----10-9-10-9--7--7-9-10-9-7--5-7-9-----------------|
|-------------------------------------------------------------------|
|-------------------------------------------------------------------|

Like us on Facebook.....
-> Loading Time :0.0394 sec