Golden Age Tabs & Lyrics by Kreator

Golden Age

guitar tabs lyrics

Kreator

Album : Endorama thrash metal PlayStop


Email for any question

Transcribed by: Konstantin Radchenko
e-mail: kostarv@yahoo.com
Date: Friday, 7 Sep 2002 14:11:02
Band: Kreator
Song: Golden Age
Music by Miland Petrozza & Thomas Vetterli
Lyrics by Miland Petrozza
Published by Edition Drakkar/AOM. BMG UFA

Album: ENDORAMA
Version 2.0
Tuned into D

Intro:
Riff A
Gtr 1 x2
||----------------------------------------------------------------------------||
||*--------------------------------------------------------------------------*||
||----------------------------------------------------------------------------||
||----------------------------------------------------------------------------||
||*---8--7---8---7--77-8-7---8--7--77--8--7---8--7---77--8--7---7--7---------*||
||----------------------------------------------------------------------------||
|p.m. . . . . .. . . . . .. . . . . .. . . . . |
| |
|Gtr 2 |
||----------------------------------------------------------------------------||
||*--------------------------------------------------------------------------*||
||----------------------------------------------------------------------------||
||----------------------------------------------------------------------------||
||*------------------------------------5555555555555555-33333333-------------*||
||---0000000000000000-8888888888888888---------------------------3333-1111----||
p.m. ................ ................ ............... ........ .... ....


Verse
Riff B ___ Let me take you down ___ __ It's time to say goodbye __
Gtr 1 x4 x3
||-----------------|-------|--------------------------------|--------------------------------||
||*---------------*|-------|*------------------------------*|--------------------------------||
||-----------------|-------|--------------------------------|--------------------------------||
||-----------------|-------|--------------------------------|--------------------------------||
||*----2---3-2----*|---/\--|*--2--3-2----------------------*|-2--3-2-------------------------||
||-----0---1-0-----|---/\--|---0--1-0-0-0-0-0-000-0-0-000---|-0--1-0-00-55555555-3333-1111---||
|p.m. . . . . ... . . ... .. ........ .... .... |
| |
|Gtr 2 x4 x3 |
||-----------------|-------|--------------------------------|--------------------------------||
||*---------------*|-------|*------------------------------*|--------------------------------||
||-----9--10-9-----|-------|--------------------------------|--------------------------------||
||-----9--10-9-----|-------|--------------------------------|--------------------------------||
||*----7--8--7----*|---/\--|*--2--3-2----------------------*|-2--3-2-------------------------||
||-----------------|---/\--|---0--1-0-0-0-0-0-000-0-0-000---|-0--1-0-00-55555555-3333-1111---||
|p.m. . . . . ... . . ... .. ........ .... ....

Verse 1
__ Let me take you down ___
__ Deeper than you know __
__ Reality is gone __
__ Yet so much to show __
__ Let me take you down __
__ Let us look inside __
__ There's still so much to come __
__ It's time to say goodbye __


Chorus
Riff C __ Broken dreams __ Misery __ replaced by constant extasy ____
Gtr 1
||--------0:----------------------------3:-------------------------------|
||*-------0:----------------------------3:-------------------------------|
||--------0:----------------------------5:-------------------------------|
||--------2:----------------------------5:-------------------------------|
||*-------2:----------------------------3:-------------------------------|
||--------0:----------------------------3:-------------------------------|
| |
| |
|Gtr 2 (I'm totally not sure about this one, but it's suppose to be played by keyboards)
||-----------------------------------------------------------------------|
||*----------------------------------------------------------------------|
||---------11----12-----11----9:-----------------------------------------|
||-----------------------------------------------------------------------|
||*--------9-----10-----9-----7:-----------------------------------------|
||-----------------------------------------------------------------------|



__ Wide awake open wide ____ existance of a better kind
Gtr 1 x2
|---------5:----------------------------3:-------------------------------||
|---------5:----------------------------3:------------------------------*||
|---------7:----------------------------5:-------------------------------||
|---------7:----------------------------5:-------------------------------||
|---------5:----------------------------3:--------------------------5---*||
|---------5:----------------------------3:--------------------------3----||
| |
|Gtr 2 |
|------------------------------------------------------------------------||
|-----------------------------------------------------------------------*||
|----------11----12-----11----9:-----------------------------------------||
|------------------------------------------------------------------------||
|----------9-----10-----9-----7:----------------------------------------*||
|------------------------------------------------------------------------||

Chorus
__ Broken dreams __
__ Misery replaced by constant extasy __
__ Wide awake open wide __
__ existance of a better kind __
__ Waits for you waits for me __
__ Our minds become forever free __
__ Free of fear free of rage __
__ The coming of the Golden Age for all __

Verse 2
__ Let me take you down __
__ Let life fade away __
__ The ritual has begun __
__ Your life begins today __
__ Let me take you down __
__ Explore the other side __
__ Enlightened as we drown __
__ It's time to say goodbye __

Chorus

Bridge
Riff D
Gtr 1 + Gtr 2
||--------------------------------------|---------------------------------------|
||--------------------------------------|---------------------------------------|
||-----------0-----------------0--------|-----------0----------------0----------|
||-------5-----5---5-------5-----5---5--|-------4-----4---4------4-----4---4----|
||-----3---3-----3-------3---3-----3----|-----2---2-----2------2---2-----2------|
||---0-----------------0----------------|---0----------------0------------------|


Gtr 1 + Gtr 2
|-------------------------------------|------------------------------------|
|-------------------------------------|------------------------------------|
|-----------0----------------0--------|-----------0---------------0--------|
|-------2-----2---2------2-----2---2--|-------4-----4---4-----4-----4---4--|
|-----2---2-----2------2---2-----2----|-----2---2-----2-----2---2-----2----|
|---0----------------0----------------|---0---------------0----------------|


Gtr 1 + Gtr 2
|-------------------------------------|------------------------------------|
|-------------------------------------|------------------------------------|
|-----------0----------------0--------|-----------0---------------0--------|
|-------7-----7---7------7-----7---7--|-------5----5---5------5-----5---5--|
|-----5---5-----5------5---5-----5----|-----3---3----3------3---3-----3----|
|---0----------------0----------------|---0---------------0----------------|


Gtr 1 + Gtr 2 x2
|----------------------------------------||
|*--------------------------------------*||
|-----------0---------------0------------||
|-------4-----4---4-----4-----4---4------||
|*----2---2-----2-----2---2-----2-------*||
|---0---------------0--------------------||


Bridge
__ Don't you turn around now __
__ Don't you be afraid now __
__ Just turn another page now __
__ Celebrate the Golden Age __


Solo
Gtr 1 full slight bend 1/2
||------------------------------------------------------------/---/--------|
||------/12-----12p10h12p10h11----13p12-12p10h12p10h11--8-10-10--10--------|
||-------------------------------------------------------------------------|
||-------------------------------------------------------------------------|
||-------------------------------------------------------------------------|
||-------------------------------------------------------------------------|


Gtr 1 full slight bend
|----------------------------------------------------------/------------------------|
|---8-10-12--12p10h12p10h11----13p12-12p10h12p10h11--8-10-10-(10)~----8-10-8-10-----|
|-----------------------------------------------------------------------------------|
|-----------------------------------------------------------------------------------|
|-----------------------------------------------------------------------------------|
|-----------------------------------------------------------------------------------|

Gtr 1 full
|-----------------------------------------------------------------/---\---------|
|----8hbr-88-8~-8-9-12-9h12p9-9-8h9p8-8-8h9p8-4-3h4p3-3-3h4p3--3-3--3-3r-4-3----|
|-------------------------------------------------------------------------------|
|-------------------------------------------------------------------------------|
|-------------------------------------------------------------------------------|
|-------------------------------------------------------------------------------|


Gtr 1 1/2 slight bend
|------------------------/--------------15p12-12-12-12-15-12-14-12-12-12-15-12-14-12-12-12--|
|----/3----3-3----6-6/5-6r---6-66666-6~-----------------------------------------------------|
|-------------------------------------------------------------------------------------------|
|-------------------------------------------------------------------------------------------|
|-------------------------------------------------------------------------------------------|
|-------------------------------------------------------------------------------------------|


Gtr 1
|---14-12-15-12-12-12/\12-12~~~~~~-------||
|----------------------------------------||
|----------------------------------------||
|----------------------------------------||
|----------------------------------------||
|----------------------------------------||


Solo rhythm
Gtr 2 x2
||----------------------------------------------------------------------------|
||*--------------------------------------------------------------------------*|
||----------------------------------------------------------------------------|
||----------------------------------------------------------------------------|
||*---8--7---8---7--77-8-7---8--7--77--8--7---8--7---77--8--7---7--7---------*|
||----------------------------------------------------------------------------|
p.m. . . . . .. . . . . .. . . . . .. . . . .


Gtr 2
|---------------------------------------------------------------------------------------|
|---------------------------------------------------------------------------------------|
|---------------------------------------------------------------------------------------|
|---------------------------------------------------------------------------------------|
|---11--10--11--10-1010-11-10---11--10--1010--11--10---11--10--1010--11--10--10--10-----|
|---------------------------------------------------------------------------------------|
p.m... . . . .. . . . . .. . . . . .. . . . .


Gtr 2
|--------------------------------------------------------------------------||
|--------------------------------------------------------------------------||
|--------------------------------------------------------------------------||
|--------------------------------------------------------------------------||
|----8--7---8---7--77-8-7---8--7--77--8--7---8--7--------------------------||
|--------------------------------------------------55555555-3333-1111------||
p.m. . . . . .. . . . . .. . . . . ........ .... ....


Chorus

Riff A

Ending
||---------------||
||---------------||
||---------------||
||---------------||
||----2---3-2----||
||----0---1-0----||



Legend:
: - let ring

...If you have any comments, corrections, missing parts or you just wanna talk to somebody, be sure to e-mail me...



"THAT WE COME TO THIS EARTH TO LIVE IS UNTRUE. WE CAME BUT TO SLEEP, TO DREAM"
(AZTEC POEM, ANONYMOUS)


Like us on Facebook.....
-> Loading Time :0.0109 sec