Victim of the Paranoid Tabs & Lyrics by Six Feet Under

Victim of the Paranoid

guitar tabs lyrics

Six Feet Under

Album : Maximum Violence death metal PlayStop


Band: Six Feet Under
Song: Victim of the Paranoid
Tuning: C,F,Bb,Eb,G,C




[------------------------------------------------------------]
[------------------------------------------------------------]
[------------------------------------------------------------]

[-2---------3---------2---------6---------3-----5------------]
[-2---------3---------2---------6---------3-----5------------]
[-0-0-0-0-0-1-0-0-0-0-0-0-0-0-0-4-0-0-0-0-1-0-0-3------------]
* * * * * * * * * * * * * * * * * * Intro/Verse
[------------------------------------------------------------]
[------------------------------------------------------------]
[-----------3------------------------------------------------]
[-2---------3---------2---------5---------3-----5------------]
[-2---------1---------2---------5---------3-----5------------]
[-0-0-0-0-0---0-0-0-0-0-0-0-0-0-3-0-0-0-0-1-0-0-3------------]
* * * * * * * * * * * * * * * * * *
[-----------------------------------------------------------]
[-----------------------------------------------------------]
[-----------------------------3-----------------------------]
[---------2-------------------3--------4--------------------] Chorus 1
[---------2-Let-Ring----------1--------4--------------------]
[-0-0-0-0-0-----------0-0-0-0--0-0-0-0-2--------------------]
* * * * * * * * * * * *

[------------------------------------------------------------]
[------------------------------------------------------------]
[------------------------------------------------------------]
[---------2-------------------4---------4--------------------] Chorus 2
[---------2-Let-Ring----------4---------4--------------------]
[-0-0-0-0-0-----------0-0-0-0-2-0-0-0-0-2--------------------]
* * * * * * * * * * * *
[------------------------------------------------------------]
[------------------------------------------------------------]
[------------------------------------------------------------]
[-2---------2-----3-----3---------2-----2-----5-6------------]
[-2---------2-----3-----3---------2-----2-----5-6------------]
[-0-0-0-0-0-0-0-0-1-0-0-1-0-0-0-0-0-0-0-0-0-0-3-4------------] Break A
* * * * * * * * * * * * * * * *
[------------------------------------------------------------]
[------------------------------------------------------------]
[------------------------------------------------------------]
[-2---------2-----3-----3---------2-----2-----8-7------------]
[-2---------2-----3-----3---------2-----2-----8-7------------]
[-0-0-0-0-0-0-0-0-1-0-0-1-0-0-0-0-0-0-0-0-0-0-6-5------------]
* * * * * * * * * * * * * * * *

[------------------------------------------------------------]
[------------------------------------------------------------]
[------------------------------------------------------------]
[-555555555555555555555555555555555555555555555555-----------] Break B
[-555555555555555555555555555555555555555555555555-----------]
[-333333333333333333333333333333333333333333333333-----------]
************************************************

Order:
Intro/Verse X8
Chorus 1 X4
Intro/Verse X4
Chorus 2 X4
Break A X2
Break B X1
Break A X1
Break B X1
Break A X2
Chorus 1 X4
Intro/Verse(first half only) X2
Intro/Verse X4

Like us on Facebook.....
-> Loading Time :0.0069 sec