Two Sided Politics Tabs & Lyrics by Suicidal Tendencies

Two Sided Politics

guitar tabs lyrics

Suicidal Tendencies

Album : Suicidal Tendencies hardcore punk PlayStop


Band: Suicidal Tendencies
Album: Suicidal Tendencies
Song: Two Sided Politics

Copyright (c) (Virgin) (1983)
Version 1.0 - (07/06/05)

Transcribed By: Steve
Email: stephen.elvidge1@ntlworld.com


. - palm mute / - slide up to
\ - slide down to ~ - vibrato
h - hammer on b - Bend
p - pull off Suffixes for bend
t - tap f - full bend h - half bend
ph - pinched harmonic q - quarter bend t - tap bend
* - see comment ^ - Hold bend r release bend
x - Stuccatto ~ - vibrato bend
, - slight palm mute () - ghost note, sustained note
" - tremolo note - Trill

Tunning E A D G B E


Intro

Drum fill
Trill
E-------------------------------------------|
B----------------9p7------------------------|
G-9------(9)---------------7------(7)-------|
D-9------(9)---------------7------(7)-------|
A-7------(7)-----------12\-5------(5)-------|
E----------------------12\------------------|

Main / Verse Riff

E--------------------------|
B--------------------------|
G--------------------------|
D-2-4-4-7/9-9-2-4-4-10\9-9-|
A-0-2-2-5/7-7-0-2-2-8-\7-7-|
E--------------------------| Rpt 4 X

Bridge

E-------------------|
B-------------------|
G-1111111114\12-12--|
D-1111111114\12-12--|
A-9-9-9-9-12\10-10--|
E-------------------| Rpt 4 X

Chorus

E--------------------------------------|
B--------------------------------------|
G-9--9-9----(9)----7--7-7----(7)-------|
D-9--9-9----(9)----7--7-7----(7)-------|
A-7--7-7----(7)----5--5-5----(5)-------|
E--------------------------------------|

Backing for guitar solo.

Verse Riff 2 X

E-------------------------|
B-------------------------|
G-------------------------|
D-------5/7-7-------8\7-7-|
A-5/7-7-3/5-5-5/7-7-6\5-5-|
E-3/5-5-------3/5-5-------| Rpt

Rpt Verse Riff 2 X

Rpt Bridge, Chorus, Verse and Bridge.

E------------------------|
B------------------------|
G-9----(9)----\7-\6-\4---|
D-9----(9)----\7-\6-\4---|
A-7----(7)----\5-\4-\2---|
E------------------------|



END

Like us on Facebook.....
-> Loading Time :0.0131 sec