The Moron Brothers Tabs & Lyrics by NOFX

The Moron Brothers

guitar tabs lyrics

NOFX

Album : Ribbed albums i own PlayStop


A=wide guitar B=large guitar A&B=both guitars
:
# intro #A 7-5-------------5-7----710-------5-------------5-7-----7-5-------|
D-------->-----------------------------------------------------------------|
A---3---->5-3-------------3-5----5-8----->>>>>>to next page...
:
:
:
THE MORON BROTHERS 2/3
# verse #A&B X2 *=play 5-6X +=play 10X pm=with palm-muting

E----*------/--pm--\-*----------/pm\|
B---5---------------5-------5-------|
G---5--------+------5-------5----*--|
D---5-------3-------5-------5-5-3---|
A---3-------3-------3-------3-5-3---|
E-----------1-----------------3-1---|
:
# riff3 #A *=play 4-6X
E----*----3-1*----------------------|
B---5-----3-1----------------*------|
G---5-----4-2-------5-710-9-7-------|
D---5-----5-3-----------------------|
A---3-----5-3-------3-5-8-7-5-------|
E---------3-1-----------------------| *=play 6X
# riff3 #B b=bend-up one step r=release bend > Then play A&BverseA&BX2.
E-----------------------------------|
B-------8------------*-------*------|
G---7b---7br5-------5-------4-------|
D-------------------5-------5-------|
A-------------------3-------5-------|
E---------------------------3-------|
:
# riff4 #A *=play 4-6X #=play 3X # chorus #A X2 *=play 6X
E----*----3-1*-------#---#---#---#--| E----*------3*------1*------3*------|
B---5-----3-1-------5---7--10---9---| B---5-------3-------1-------3-------|
G---5-----4-2-------5---7--10---9---| G---5-------4-------2-------4-------|
D---5-----5-3-------5---7--10---9---| D---5-------5-------3-------5-------|
A---3-----5-3-------3---5---8---7---| A---3-------5-------3-------5-------|
E---------3-1-----------------------| E-----------3-------1-------3-------|
# riff4 #B b=bend-up one step #=play 3X# chorus #B X2 *=play 6X
E------15---------------------------| E----*------------------------------|
B--15b--15br13-------#---#---#---#--| B---5-------------------------------|
G-------------------5---7--10---9---| G---5--------*-------*-------*------|
D-------------------5---7--10---9---| D---5-------5-------3-------5-------|
A-------------------3---5---8---7---| A---3-------5-------3-------5-------|
E--r=release-bend-------------------| E-----------3-------1-------3-------|
:
# end-chorus #A *=play 6X #=play 4X %=pause
E----#--3#--1#---%%%-#--3#--1*------3*------|
B---5---3---1----%%%5---3---1-------3-------|
G---5---4---2----%%%5---4---2-------4-------|
D---5---5---3----%%%5---5---3-------5-------|
A---3---5---3----%%%3---5---3-------5-------|
E-------3---1----%%%----3---1-------3-------|
# end-chorus #B *=play 6X #=play 3X > Then comes do-do-part
E-------------------------------------------| without guitars.
B----#---------------#----------------------|
G---5----#---*------5----#---*-------*------|
D---5---5---3-------5---5---3-------5-------|
A---3---5---3-------3---5---3-------5-------|
E-------3---1-----------3---1-------3-------|
:
# bridge2 #A *=play 5-6X !end with 1st chord!
E----*----3-1*-------*-------*-------*-------*-------*-------*------| t
B---5-----3-1-----5-7-----910-------5----1210-----5-7-----910-------| o
G---5-----4-2-----5-7-----910-------5----1210-----5-7-----910-------|
D---5-----5-3-----5-7-----910-------5----1210-----5-7-----910-------| n
A---3-----5-3-----3-5-----7-8-------3----10-8-----3-5-----7-8-------| e
E---------3-1-------------------------------------------------------| x
# bridge2 #B *=play 5-6X t
E-------------------------------------------------------------------|
B----*---------------*-------*-------*-------*-------*-------*------| p
G---5--------*----5-7-----910-------5----1210-----5-7-----910-------| a
D---5-----5-3-----5-7-----910-------5----1210-----5-7-----910-------| g
A---3-----5-3-----3-5-----7-8-------3----10-8-----3-5-----7-8-------| e
E---------3-1-------------------------------------------------------| ...
THE MORON BROTHERS 3/3
: !A plays riff4A!
# end-bridge2 #A&B !=play 4X p-m # riff5 #B b=bend-up one step #=play--| 3X
E-------------------| E-------------------------------------|
B-------------------| B-------8----c-------#---#---#---#----|
G-------------------| G---7b---7br-5------5---7--10---9-----|
D--10-9-7-5--!---!--| D-------------757\--5---7--10---9-----|
A--10-9-7-5-3---5---| A--c=pinch----------3---5---8---7-----|
E---8-7-5-3-1---3---| E--r=release-bend---------------------|
:
Then play A&BchorusA&BX2 (!1st time with long pause and pick-slide!)
:
# end-chorus2 #A *=play 6X #=play 4X %=pause
E----#--3#--1#---%%%-#--3#------------------|
B---5---3---1----%%%5---3-------------------|
G---5---4---2----%%%5---4--10---------------|
D---5---5---3----%%%5---5-------------------|
A---3---5---3----%%%3---5---8---------------|
E-------3---1----%%%----3-------------------|
# end-chorus2 #B *=play 6X #=play 3X
E-----------------------------------1-------|
B----#---------------#--------------1-------|
G---5----#---*------5----#----------2-------|
D---5---5---3-------5---5---3-------3-------|
A---3---5---3-------3---5---3---------------|
E-------3---1-----------3---1---------------|
:

Like us on Facebook.....
-> Loading Time :0.0139 sec