Faceless Man Tabs & Lyrics by Creed

Faceless Man

guitar tabs lyrics

Creed

Album : Human Clay albums i own PlayStop


Gtr I (D A D A D D) - 'Untitled'
Gtr II (D A D A D D) - 'Untitled'
Gtr III (D A D A D D) - 'Untitled'
Gtr IV (D A D A D D) - 'Untitled'
Gtr V (D A D A D D) - 'Untitled'
Gtr VI (D A D A D D) - 'Untitled'


Intro
Slow Rock Q=70

N.C.
4/4
Gtr II
~~~~~~
W S S S S S S S S S S S S E S S 3x
|------------||---7p=0------0---------------------------||
|------------||o-------8S10---10-----------------------o||
|------------||------------------0---9S10-10S12-12------||
|------------||--------------------0---------------0-0--||
|------------||o---------------------------------------o||
|------------||-----------------------------------------||
|
| Gtr I
| ~~~~~~~~~~~~~~~~~~~~~~~~~~~~~~~~~~~~~~~~~~~~~~~~~~~~~~~
| W +W 3x
|------------||-----------------------------------------||
|------------||o---------------------------------------o||
|------------||-----------------------------------------||
|------------||-----------------------------------------||
|-(5)--------||o-(5)-----------------------------------o||
|------------||-----------------------------------------||


S S S S S S S S S S S S S S E
|--7p=0---8---------0------0----------||
|-----------------0------0------------||
|-------0---0---9-----10-----12h13-12-||
|-------------0-----------------------||
|-------------------------------------||
|-------------------------------------||
|
|~~~~~
| +W
|-------------------------------------||
|-------------------------------------||
|-------------------------------------||
|-------------------------------------||
|-(5)---------------------------------||
|-------------------------------------||


Verse
N.C.
~~
S S S S S S S S S S S S E S S
||---7p=0------0--------------------------|
||o-------8S10---10-----------------------|
||------------------0---9S10-10S12-12-----|
||--------------------0---------------0-0-|
||o---------------------------------------|
||----------------------------------------|
|
| ~~~~~~~~~~~~~~~~~~~~~~~~~~~~~~~~~~~~~~
| +W
||----------------------------------------|
||o---------------------------------------|
||----------------------------------------|
||----------------------------------------|
||o-(5)-----------------------------------|
||----------------------------------------|


~~
S S S S S S S S S S S S E S S
|--7p=0------0---------------------------|
|-------8S10---10------------------------|
|-----------------0---9S10-10S12-12------|
|-------------------0---------------0-0--|
|----------------------------------------|
|----------------------------------------|
|
|~~~~~
| +W
|----------------------------------------|
|----------------------------------------|
|----------------------------------------|
|----------------------------------------|
|-(5)------------------------------------|
|----------------------------------------|


~~ ~
S S S S S S S S S S S S E S S S S S S S S S S S S S S E S S
|--7p=0------0--------------------------|--7p=0------0------------------------|
|-------8S10---10-----------------------|-------8S10---10---------------------|
|-----------------0---9S10-10S12-12-----|-----------------0---9S10-10S9-9-----|
|-------------------0---------------0-0-|-------------------0-------------0-0-|
|---------------------------------------|-------------------------------------|
|---------------------------------------|-------------------------------------|
|
| ~~~~~~~~~~~~~~~~~~~~~~~~~~~~~~~~~~~~~~~~~~~
| +W +W
|---------------------------------------|-------------------------------------|
|---------------------------------------|-------------------------------------|
|---------------------------------------|-------------------------------------|
|---------------------------------------|-------------------------------------|
|-(5)-----------------------------------|-(5)---------------------------------|
|---------------------------------------|-------------------------------------|


~~
S S S S S S S S S S S S E S S
|--7p=0------0--------------------------|
|-------8S10---10-----------------------|
|-----------------0---9S10-10S12-12-----|
|-------------------0---------------0-0-|
|---------------------------------------|
|---------------------------------------|
|
| ~~~~~~~~~~~~~~~~~~~~~~~~~~~~~~~~~~~~~~
| +W
|---------------------------------------|
|---------------------------------------|
|---------------------------------------|
|---------------------------------------|
|-(5)-----------------------------------|
|---------------------------------------|


~~
S S S S S S S S S S S S E S S
|--7p=0------0--------------------------|
|-------8S10---10-----------------------|
|-----------------0---9S10-10S12-12-----|
|-------------------0---------------0-0-|
|---------------------------------------|
|---------------------------------------|
|
|~~~~~
| +W
|---------------------------------------|
|---------------------------------------|
|---------------------------------------|
|---------------------------------------|
|-(5)-----------------------------------|
|---------------------------------------|


~~
S S S S S S S S S S S S E S S
|--7p=0------0--------------------------|
|-------8S10---10-----------------------|
|-----------------0---9S10-10S12-12-----|
|-------------------0---------------0-0-|
|---------------------------------------|
|---------------------------------------|
|
| Gtr III
| W
|---------------------------------------|
|---------------------------------------|
|---------------------------------------|
|---------------------------------------|
|---------------------------------------|
|---------------------------------------|
|
| Gtr I
| ~~~~~~~~~~~~~~~~~~~~~~~~~~~~~~~~~~~~~~
| +W
|---------------------------------------|
|---------------------------------------|
|---------------------------------------|
|---------------------------------------|
|-(5)-----------------------------------|
|---------------------------------------|


Pre-Chorus
D5 Csus2 D5
~
S S S S S S S S S S S S E S S W
|--7p=0------0------------------------||---------------------------------|
|-------8S10---10---------------------||---------------------------------|
|-----------------0---9S10-10S9-9-----||---------------------------------|
|-------------------0-------------0-0-||---------------------------------|
|-------------------------------------||---------------------------------|
|-------------------------------------||---------------------------------|
|
| Gtrs II, III
| H Q E S S E S S E S S +S S E S S S S
|-------------------------------------||--0--0-0-0-0-0-(0)-0-0-0-0-0-0---|
|-------------------------------------||--0--0-0-0-0-0-(0)-0-0-0-0-0-0---|
|-------------------------------------||--5--5-5-5-5-5-(5)-5-5-5-5-0-0---|
|---------------------------------0-0-||--5--3-5-5-5-5-(5)-5-5-5-5-0-0---|
|---------------------------------0-0-||--3--3-3-3-3-3-(3)-3-3-3-3-0-0---|
|---------------------------------0-0-||---------------------------0-0---|
|
|~~~~~~~~~~~~~~~~~~~~~~~~~~~~~~~~~~~~~~~~~~~~
| +W +W
|-------------------------------------||---------------------------------|
|-------------------------------------||---------------------------------|
|-------------------------------------||---------------------------------|
|-------------------------------------||---------------------------------|
|-(5)---------------------------------||-(5)-----------------------------|
|-------------------------------------||---------------------------------|


Gsus2 D/Gsus2 D5/AD GsD/F#
Gtrs II, III
E S S E S S +S S S S S S S S E S S E S S +S S S S +S S S S
|--5--5-5-5-5-5-(5)-5-5-4-5-5S=7--7-|--4--4-4-4-4-4-(4)-5-5-4-(4)-4-4-4-|
|--0--0-0-0-0-0-(0)-0-0-0-0-0-(0)-0-|--0--0-0-0-0-0-(0)-0-0-0-(0)-0-0-0-|
|--0--0-0-0-0-0-(0)-0-0-0-0-0-(0)-0-|--0--0-0-0-0-0-(0)-0-0-0-(0)-0-0-0-|
|--0--0-0-0-0-0-(0)-0-0-0-0-0-(0)-0-|--0--0-0-0-0-0-(0)-0-0-0-(0)-0-0-0-|
|--x--x-x-x-x-x-(x)-x-x-x-x-x-----x-|--0--0-0-0-0-0-(0)-0-x-x-(x)-x-x-x-|
|--5--5-5-5-5-5-(5)-5-5-4-5-5-----7-|--0--0-0-0-0-0-(0)-0-5-4-(4)-4-4-4-|
|
| Gtr I
| ~~~~~~~~~~~~~~~~~~~~~~~~~~~~~~~~~~~~~~~
| +W +W
|-----------------------------------|-----------------------------------|
|-----------------------------------|-----------------------------------|
|-----------------------------------|-----------------------------------|
|-----------------------------------|-----------------------------------|
|-(5)-------------------------------|-(5)-------------------------------|
|-----------------------------------|-----------------------------------|


D GsD/F# D5 Csus2 D5
E S S E S S S S S S S S S S E S S E S S +S S E S S S S
|--4--4-4-4-4-4-4-5-5-4-4-4-0-0-|--0--0-0-0-0-0-(0)-0-0-0-0-0-0--|
|--0--0-0-0-0-0-0-0-0-0-0-0-0-0-|--0--0-0-0-0-0-(0)-0-0-0-0-0-0--|
|--0--0-0-0-0-0-0-0-0-0-0-0-0-0-|--5--5-5-5-5-5-(5)-5-5-5-5-0-0--|
|--0--0-0-0-0-0-0-0-0-0-0-0-0-0-|--5--5-5-5-5-5-(5)-5-5-5-5-0-0--|
|--0--0-0-0-0-0-0-0-x-x-x-x-0-0-|--3--3-3-3-3-3-(3)-3-3-3-3-0-0--|
|--0--0-0-0-0-0-0-0-5-4-4-4-0-0-|---------------------------0-0--|
|
| ~~~~~~~~~~~~~~~~~~~~~~~~~~~~~~~~~~~
| +W +W
|-------------------------------|--------------------------------|
|-------------------------------|--------------------------------|
|-------------------------------|--------------------------------|
|-------------------------------|--------------------------------|
|-(5)---------------------------|-(5)----------------------------|
|-------------------------------|--------------------------------|


Gsus2 D/Gsus2 D5/AD GsD/F#
E S S E S S +S S S S S S S S E S S E S S +S S S S S S S S
|--5--5-5-5-5-5-(5)-5-5-4-5-5S=7--7-|--4--4-4-4-4-4-(4)-5-5-4-4-4-4-4-|
|--0--0-0-0-0-0-(0)-0-0-0-0-0-(0)-0-|--0--0-0-0-0-0-(0)-0-0-0-0-0-0-0-|
|--0--0-0-0-0-0-(0)-0-0-0-0-0-(0)-0-|--0--0-0-0-0-0-(0)-0-0-0-0-0-0-0-|
|--0--0-0-0-0-0-(0)-0-0-0-0-0-(0)-0-|--0--0-0-0-0-0-(0)-0-0-0-0-0-0-0-|
|--x--x-x-x-x-x-(x)-x-x-x-x-x-----x-|--0--0-0-0-0-0-(0)-0-x-x-x-x-x-x-|
|--5--5-5-5-5-5-(5)-5-5-4-5-5-----7-|--0--0-0-0-0-0-(0)-0-5-4-4-4-4-4-|
|
| ~~~~~~~~~~~~~~~~~~~~~~~~~~~~~~~~~~~~~~~
| +W +W
|-----------------------------------|---------------------------------|
|-----------------------------------|---------------------------------|
|-----------------------------------|---------------------------------|
|-----------------------------------|---------------------------------|
|-(5)-------------------------------|-(5)-----------------------------|
|-----------------------------------|---------------------------------|


Chorus
D GsD/F# D5 Csus2
E S S E S S +S S S S +S S E S S S S +S S S S +S S S S S S E
|--4--4-4-4-4-4-(4)-5-5-4-(4)-4-0-||---------0-(0)-----------------0-----|
|--0--0-0-0-0-0-(0)-0-0-0-(0)-0-0-||---------------0-----------------0---|
|--0--0-0-0-0-0-(0)-0-0-0-(0)-0-0-||-----------------5-----------5-----5-|
|--0--0-0-0-0-0-(0)-0-0-0-(0)-0-0-||-----5-------------5-(5)---5---------|
|--0--0-0-0-0-0-(0)-0-x-x-(x)-x-0-||--3----3-----------------3-----------|
|--0--0-0-0-0-0-(0)-0-5-4-(4)-4-0-||-------------------------------------|
|
| ~~~~~~~~~~~~~~~~~~~~~~~~~~~~~~~~~~~~~~
| +W +W
|---------------------------------||-------------------------------------|
|---------------------------------||-------------------------------------|
|---------------------------------||-------------------------------------|
|---------------------------------||-------------------------------------|
|-(5)-----------------------------||-(5)---------------------------------|
|---------------------------------||-------------------------------------|


Gsus2 D/Gsus2 D5/AD GsD/F#
S S S S +S S S S +S S S S S S S S E S S E S S +S S S S +S S S S
|---------0-(0)-------------5-4-5-5S=7--7-|--4--4-4-4-4-4-(4)-5-5-4-(4)-4-4-4-|
|---------------0-----------0-0-0-0-(0)-0-|--0--0-0-0-0-0-(0)-0-0-0-(0)-0-0-0-|
|-----------------0---------0-0-0-0-(0)-0-|--0--0-0-0-0-0-(0)-0-0-0-(0)-0-0-0-|
|-----0-------------0-(0)---0-0-0-0-(0)-0-|--0--0-0-0-0-0-(0)-0-0-0-(0)-0-0-0-|
|---------------------------x-x-x-x-----x-|--0--0-0-0-0-0-(0)-0-x-x-(x)-x-x-x-|
|--5----5-----------------5-5-4-5-5-----7-|--0--0-0-0-0-0-(0)-0-5-4-(4)-4-4-4-|
|
| ~~~~~~~~~~~~~~~~~~~~~~~~~~~~~~~~~~~~~~~~~~~~~
| +W +W
|-----------------------------------------|-----------------------------------|
|-----------------------------------------|-----------------------------------|
|-----------------------------------------|-----------------------------------|
|-----------------------------------------|-----------------------------------|
|-(5)-------------------------------------|-(5)-------------------------------|
|-----------------------------------------|-----------------------------------|


1.
D GsD/F# D5 Csus2
E S S E S S +S S S S +S S E S S S S +S S S S +S S S S S S E
|--4--4-4-4-4-4-(4)-5-5-4-(4)-4-0-|-------0-(0)-----------------0-----|
|--0--0-0-0-0-0-(0)-0-0-0-(0)-0-0-|-------------0-----------------0---|
|--0--0-0-0-0-0-(0)-0-0-0-(0)-0-0-|---------------5-----------5-----5-|
|--0--0-0-0-0-0-(0)-0-0-0-(0)-0-0-|---5-------------5-(5)---5---------|
|--0--0-0-0-0-0-(0)-0-x-x-(x)-x-0-|-3---3-----------------3-----------|
|--0--0-0-0-0-0-(0)-0-5-4-(4)-4-0-|-----------------------------------|
|
| ~~~~~~~~~~~~~~~~~~~~~~~~~~~~~~~~~~~
| +W W
|---------------------------------|-----------------------------------|
|---------------------------------|-----------------------------------|
|---------------------------------|-----------------------------------|
|---------------------------------|-----------------------------------|
|-(5)-----------------------------|-5---------------------------------|
|---------------------------------|-----------------------------------|


Gsus2 D/Gsus2 D5/AD
S S S S +S S S S +S S S S S S S S
|---------0-(0)-------------5-4-5-5S=7--7-|
|---------------0-----------0-0-0-0-(0)-0-|
|-----------------0---------0-0-0-0-(0)-0-|
|-----0-------------0-(0)---0-0-0-0-(0)-0-|
|---------------------------x-x-x-x-----x-|
|--5----5-----------------5-5-4-5-5-----7-|
|
| Gtr I
| ~~~~~~~~~~~~~~~~~~~~~~~~~~~~~~~~~~~~~~~~
| +W
|-----------------------------------------|
|-----------------------------------------|
|-----------------------------------------|
|-----------------------------------------|
|-(5)-------------------------------------|
|-----------------------------------------|


GsD/F# D GsD/F# D5
E S S E S S +S S S S +S S S S E S S E S S +S S S S +S S E
|-4-4-4-4-4-4-(4)-5-5-4-(4)-4-4-4-|---4--4-4-4-4-4-(4)-5-5-4-(4)-4-0----||
|-0-0-0-0-0-0-(0)-0-0-0-(0)-0-0-0-|---0--0-0-0-0-0-(0)-0-0-0-(0)-0-0---o||
|-0-0-0-0-0-0-(0)-0-0-0-(0)-0-0-0-|---0--0-0-0-0-0-(0)-0-0-0-(0)-0-0----||
|-0-0-0-0-0-0-(0)-0-0-0-(0)-0-0-0-|---0--0-0-0-0-0-(0)-0-0-0-(0)-0-0----||
|-0-0-0-0-0-0-(0)-0-x-x-(x)-x-x-x-|---0--0-0-0-0-0-(0)-0-x-x-(x)-x-0---o||
|-0-0-0-0-0-0-(0)-0-5-4-(4)-4-4-4-|---0--0-0-0-0-0-(0)-0-5-4-(4)-4-0----||
|
|~~~~~~~~~~~~~~~~~
| H H W
|---------------------------------|-------------------------------------||
|---------------------------------|------------------------------------o||
|---------------------------------|-------------------------------------||
|------------------------------|---------------------------------||
|-5-----------(5)-----------------|--(5)-------------------------------o||
|---------------------------------|-------------------------------------||


2.
Csus2 Gsus2 F#G5A5G5F#5
Gtrs II, III
S S S S +S S S S +S S S S S S E S S S S +S S S S S S S S S E S
|-------0-(0)-----------------0-----|-------0-(0)-0---------5-4-5-5---4--|
|-------------0-----------------0---|-----------------------0-0-0-0---0--|
|---------------5-----------5-----5-|---------------0-------0-0-0-0---0--|
|---5-------------5-(5)---5---------|---0-------------0-----0-0-0-0---0--|
|-3---3-----------------3-----------|-----------------------x-x-x-x---x--|
|-----------------------------------|-5---5-------------5-5-5-4-5-5---4--|
|
| Gtrs IV, V
| PM------------|
| W S S S S S S S S S S S S S S S S
|-----------------------------------|-0-0-0-0--0--0-0-0-0-0-0------------|
|-----------------------------------|-0-0-0-0--0--0-0-0-0-0-0------------|
|-----------------------------------|-0-0-0-0--0--0-0-0-0-0-0------------|
|-----------------------------------|-5-5-5-5--5--5-5-5-5-5-5-4-5-7-5-4--|
|-----------------------------------|-5-5-5-5--5--5-5-5-5-5-5-4-5-7-5-4--|
|-----------------------------------|-5-5-5-5--5--5-5-5-5-5-5-4-5-7-5-4--|


D5
Gtrs IV, V
|-3-| |-3-|
Q E. S +E S S S +S S E Q E. S +E S S S +S E.
|-0--0--0-(0)-----------0-0-|-0--0--0-(0)-----------0--|
|-0--0--0-(0)-----------0-0-|-0--0--0-(0)-----------0--|
|-0--0--0-(0)-----------0-0-|-0--0--0-(0)-----------0--|
|-0--0--0-(0)-4h5p4-(4)-0-0-|-0--0--0-(0)-5h7p5-(5)-0--|
|-0--0--0-(0)-----------0-0-|-0--0--0-(0)-----------0--|
|-0--0--0-(0)-----------0-0-|-0--0--0-(0)-----------0--|


Csus2 Gsus2 D5G5F#G5A5G5F#5
Q E. S +S S E S S S S E. S E. S S S S S S S S S
|----0--0-(0)-0-0-0-0-----|-0--0-0--0-0---------------|
|----0--0-(0)-0-0-0-0-----|-0--0-0--0-0---------------|
|----5--5-(5)-5-5-5-5-0---|-0--0-0--0-0---------------|
|-5--5--5-(5)-5-5-5-5-0---|-5--5-5--5-5-0-5-4-5S7-5-4-|
|-3--3--3-(3)-3-3-3-3-0---|-5--5-5--5-5-0-5-4-5S7-5-4-|
|-----------------------6-|-5--5-5--5-5-0-5-4-5S7-5-4-|


D5
Gtr VI
Q E S S +E S S +S E.
|-----------------------------------|
|-----------------------------------|
|-----------------------------------|
|-----------------------------------|
|------------9-(9)-10p==9---(9)-10--|
|----/10--12------------------------|
|
| Gtrs IV, V
| |--3--|
| Q E. S +E S S S +S E.
|-0----0-----0-(0)---------------0--|
|-0----0-----0-(0)---------------0--|
|-0----0-----0-(0)---------------0--|
|-0----0-----0-(0)--4h5p==4-(4)--0--|
|-0----0-----0-(0)---------------0--|
|-0----0-----0-(0)---------------0--|


S S S S S S S S S S S S +Q
|----------------------------------------------|
|----------------------------------------------|
|-----------------------------9----------------|
|---------9--------9-10-----9-----12---(12)----|
|-9-10-12---10--12------12---------------------|
|----------------------------------------------|
|
| |--3---|
| Q E. S +E S S S +S E.
|-0----------0--------0-(0)-----------------0--|
|-0----------0--------0-(0)-----------------0--|
|-0----------0--------0-(0)-----------------0--|
|-0----------0--------0-(0)---5h7p===5--(5)-0--|
|-0----------0--------0-(0)-----------------0--|
|-0----------0--------0-(0)-----------------0--|


Csus2 Gsus2 D5G5F#G5A5G5F#5
+W +W
|----------------------------|-----------------------------|
|----------------------------|-----------------------------|
|----------------------------|-----------------------------|
|-(12)-----------------------|-(12)------------------------|
|----------------------------|-----------------------------|
|----------------------------|-----------------------------|
|
| Q E. S +S S E S S S S E. S E. S S S S S S S S S
|-------0--0-(0)-0-0-0-0-----|---0--0-0--0-0---------------|
|-------0--0-(0)-0-0-0-0-----|---0--0-0--0-0---------------|
|-------5--5-(5)-5-5-5-5-0---|---0--0-0--0-0---------------|
|---5---5--5-(5)-5-5-5-5-0---|---5--5-5--5-5-0-5-4-5S7-5-4-|
|---3---3--3-(3)-3-3-3-3-0---|---5--5-5--5-5-0-5-4-5S7-5-4-|
|--------------------------6-|---5--5-5--5-5-0-5-4-5S7-5-4-|


D5
Q E S S +E S S +S E.
|-------------------------------------||
|-------------------------------------||
|-------------------------------------||
|-------------------------------------||
|------------9-(9)-10p==9---(9)-10----||
|----/10--12--------------------------||
|
| |--3--|
| Q E. S +E S S S +S E.
|-0----0-----0-(0)---------------0----||
|-0----0-----0-(0)---------------0----||
|-0----0-----0-(0)---------------0----||
|-0----0-----0-(0)--4h5p==4-(4)--0----||
|-0----0-----0-(0)---------------0----||
|-0----0-----0-(0)---------------0----||


Csus2 Csus2
S S S S S S S S S S S S +Q +W
||-----------------------------------------------|----------------------------|
||o----------------------------------------------|----------------------------|
||------------------------------9----------------|----------------------------|
||----------9--------9-10-----9-----12---(12)----|-(12)-----------------------|
||o-9-10-12---10--12------12---------------------|----------------------------|
||-----------------------------------------------|----------------------------|
|
| |--3---|
| Q E. S +E S S S +S E. Q E. S +S S E S S S S
||--0----------0--------0-(0)-----------------0--|-------0--0-(0)-0-0-0-0-----|
||o-0----------0--------0-(0)-----------------0--|-------0--0-(0)-0-0-0-0-----|
||--0----------0--------0-(0)-----------------0--|-------5--5-(5)-5-5-5-5-0---|
||--0----------0--------0-(0)---5h7p===5--(5)-0--|---5---5--5-(5)-5-5-5-5-0---|
||o-0----------0--------0-(0)-----------------0--|---3---3--3-(3)-3-3-3-3-0---|
||--0----------0--------0-(0)-----------------0--|--------------------------6-|


Gsus2 D5G5F#G5A5G5F#5 D5
+W Q E S S +E S S +S E.
|-----------------------------|------------------------------------||
|-----------------------------|-----------------------------------o||
|-----------------------------|------------------------------------||
|-(12)------------------------|------------------------------------||
|-----------------------------|------------9-(9)-10p==9---(9)-10--o||
|-----------------------------|----/10--12-------------------------||
|
| |--3--|
| E. S E. S S S S S S S S S Q E. S +E S S S +S E.
|---0--0-0--0-0---------------|-0----0-----0-(0)---------------0---||
|---0--0-0--0-0---------------|-0----0-----0-(0)---------------0--o||
|---0--0-0--0-0---------------|-0----0-----0-(0)---------------0---||
|---5--5-5--5-5-0-5-4-5S7-5-4-|-0----0-----0-(0)--4h5p==4-(4)--0---||
|---5--5-5--5-5-0-5-4-5S7-5-4-|-0----0-----0-(0)---------------0--o||
|---5--5-5--5-5-0-5-4-5S7-5-4-|-0----0-----0-(0)---------------0---||


Interlude
A/C#
Gtr IV
~~~~~~~~~~~
|-3-|
E S S E S S E S S S +E E +W
|-0-0-0-0-0-0-0-------------------||-------------|
|-0-0-0-0-0-0-0-------------------||-------------|
|-0-0-0-0-0-0-0-------------10----||-(10)--------|
|-0-0-0-0-0-0-0-5-7-5-(5)---(5)---||--(5)--------|
|-0-0-0-0-0-0-0-------------------||-------------|
|-0-0-0-0-0-0-0-------------------||-------------|
|
| Gtr V
| |-3-|
| E S S E S S E S S S +S S S S W
|-0-0-0-0-0-0-0-----------0--0--0-||---0---------|
|-0-0-0-0-0-0-0-----------0--0--0-||---0---------|
|-0-0-0-0-0-0-0-----------0--0--0-||---5---------|
|-0-0-0-0-0-0-0-5-7-5-(5)-0--0--0-||---7---------|
|-0-0-0-0-0-0-0-----------0--0--0-||---4---------|
|-0-0-0-0-0-0-0-----------0--0--0-||-------------|
|
| W W
|---------------------------------||-------------|
|---------------------------------||-------------|
|---------------------------------||-------------|
|---------------------------------||-------------|
|---------------------------------||-------------|
|---------------------------------||-------------|


Gsus2 D/Gsus2 D5/A
>
~~~~~~~~~~~~~~~~~~~~~~~~~~~~
+H +E Q.
|----------------------------------------|
|----------------------------------------|
|-(10)-----------(10)---(17)-------------|
|--(5)-----------------------------------|
|----------------------------------------|
|----------------------------------------|
|
| W
|----------------------------------------|
|----------------------------------------|
|----------------------------------------|
|---5------------------------------------|
|---5------------------------------------|
|---5------------------------------------|
|
| Gtrs II, III
| E S S E S S +S S S S S S S S
|---5--5-5-5-5-5--(5)-5---5--4-5-5S=7--7-|
|---0--0-0-0-0-0--(0)-0---0--0-0-0-(0)-0-|
|---0--0-0-0-0-0--(0)-0---0--0-0-0-(0)-0-|
|---0--0-0-0-0-0--(0)-0---0--0-0-0-(0)-0-|
|---x--x-x-x-x-x--(x)-x---x--x-x-x-----x-|
|---5--5-5-5-5-5--(5)-5---5--4-5-5-----7-|


D GsD/F# D GsD/F#
>
W W
|---------------------------------|--------------------------------||
|---------------------------------|--------------------------------||
|---------------------------------|--------------------------------||
|-4-------------------------------|--------------------------------||
|---------------------------------|--------------------------------||
|---------------------------------|--------------------------------||
|
| >
| W +W
|---------------------------------|--------------------------------||
|---------------------------------|--------------------------------||
|---------------------------------|--------------------------------||
|---------------------------------|--------------------------------||
|---------------------------------|--------------------------------||
|-0-------------------------------|-(0)----------------------------||
|
| Gtrs II, III
| E S S E S S +S S S S +S S S S E S S E S S S S S S S S S S
|-4-4-4-4-4-4-(4)-5-5-4-(4)-4-4-4-|--4--4-4-4-4-4-4-5-5-4-4-4-0-0--||
|-0-0-0-0-0-0-(0)-0-0-0-(0)-0-0-0-|--0--0-0-0-0-0-0-0-0-0-0-0-0-0--||
|-0-0-0-0-0-0-(0)-0-0-0-(0)-0-0-0-|--0--0-0-0-0-0-0-0-0-0-0-0-0-0--||
|-0-0-0-0-0-0-(0)-0-0-0-(0)-0-0-0-|--0--0-0-0-0-0-0-0-0-0-0-0-0-0--||
|-0-0-0-0-0-0-(0)-0-x-x-(x)-x-x-x-|--0--0-0-0-0-0-0-0-x-x-x-x-0-0--||
|-0-0-0-0-0-0-(0)-0-5-4-(4)-4-4-4-|--0--0-0-0-0-0-0-0-5-4-4-4-0-0--||


Bridge
Aadd4/C# Gsus2 D/Gsus2 D5/A
Gtr III
S S S S +S S S S +E S S +S S S S S S S S +S S S S +E S S S S S S
|-------0-(0)-------------0-(0)-------|-------0-(0)-----------5-4-5-5S=7--7-|
|-------------0-----------------0-----|-------------0---------0-0-0-0-(0)-0-|
|---0-----------0-----------------0---|---------------0-------0-0-0-0-(0)-0-|
|-7---------------7-(7)-7-----------7-|---0-------------0-(0)-0-0-0-0-(0)-0-|
|-4---4-----------------4-------------|-----------------------x-x-x-x-----x-|
|-------------------------------------|-5---5-----------------5-4-5-5-----7-|


D GsD/F# D5 Bsus2 D5
E S S E S S S S S S +S S S S E S S E S S S S E S S E
|-4-4-4-4-4-4-4-5-5-4-(4)-4-0-0-|-------0-0-0-0-0-0-0-0-0-|
|-0-0-0-0-0-0-0-0-0-0-(0)-0-0-0-|-------0-0-0-0-0-0-0-0-0-|
|-0-0-0-0-0-0-0-0-0-0-(0)-0-0-0-|-4-4-4-4-4-4-4-4-4-4-4-0-|
|-0-0-0-0-0-0-0-0-0-0-(0)-0-0-0-|-4-4-4-4-4-4-4-4-4-4-4-0-|
|-0-0-0-0-0-0-0-0-x-x-(x)-x-0-0-|-2-2-2-2-2-2-2-2-2-2-2-0-|
|-0-0-0-0-0-0-0-0-5-4-(4)-4-0-0-|-----------------------0-|


Gsus2
Gtrs II, III
E S S E S S S S E S S S S E S S E S S E S S S E S
|-5-5-5-5-5-5-5-5-5-5-5-5-5-|-5-5-5-5-5-5-5-5-4-5-5-4-|
|-0-0-0-0-0-0-0-0-0-0-0-0-0-|-0-0-0-0-0-0-0-0-0-0-0-0-|
|-0-0-0-0-0-0-0-0-0-0-0-0-0-|-0-0-0-0-0-0-0-0-0-0-0-0-|
|-0-0-0-0-0-0-0-0-0-0-0-0-0-|-0-0-0-0-0-0-0-0-0-0-0-0-|
|-x-x-x-x-x-x-x-x-x-x-x-x-x-|-x-x-x-x-x-x-x-x-x-x-x-x-|
|-5-5-5-5-5-5-5-5-5-5-5-5-5-|-5-5-5-5-5-5-5-5-4-5-5-4-|


D5
Gtr IV
|--3--|
Q S S S S S S S S S S S S S
|-------11-12-14-11-12-14-11-12-14-11-14p12p11-|
|----------------------------------------------|
|----------------------------------------------|
|----------------------------------------------|
|----------------------------------------------|
|----------------------------------------------|
|
| Gtrs II, III
| E S S S S S S S S S S E E
|-0-0-0--0--0--0--0--0--0--0--0--0-----0-------|
|-0-0-0--0--0--0--0--0--0--0--0--0-----0-------|
|-0-0-0--0--0--0--0--0--0--0--0--0-----0-------|
|-0-0-0--0--0--0--0--0--0--0--0--0-----0-------|
|----------------------------------------------|
|----------------------------------------------|


A/C#
H. +S S E E. S E. S +S S E S S S S
|-12-------(12)-(12)---|---------------------------|
|----------------------|---------------------------|
|----------------------|---------------------------|
|--------------------0-|-7--7-7--7-(7)-7-7-7-7-----|
|--------------------0-|-4--4-4--4-(4)-4-4-4-4-0---|
|--------------------0-|-------------------------6-|
|
| W E. S E. S +S S E S S S S
|----------------------|---------------------------|
|----------------------|---------------------------|
|----------------------|---------------------------|
|--0-------------------|-7--7-7--7-(7)-7-7-7-7-----|
|--0-------------------|-4--4-4--4-(4)-4-4-4-4-0---|
|--0-------------------|-------------------------6-|


Gsus2 D5G5F#G5A5G5F#5 D5
Gtrs V, VI
|-3-|
E. S E. S +S S S S S S S S E. S E S S S S S S S +S S S S
|-0--0-0--0-(0)-0-------------|-0--0-0-0-0-0-0-----------0-0-0-|
|-0--0-0--0-(0)-0-------------|-0--0-0-0-0-0-0-----------0-0-0-|
|-0--0-0--0-(0)-0-------------|-0--0-0-0-0-0-0-----------0-0-0-|
|-5--5-5--5-(5)-0-5S4-5-7-5-4-|-0--0-0-0-0-0-0-4h5p4-(4)-0-0-0-|
|-5--5-5--5-(5)-0-5S4-5-7-5-4-|-0--0-0-0-0-0-0-----------0-0-0-|
|-5--5-5--5-(5)-0-5S4-5-7-5-4-|-0--0-0-0-0-0-0-----------0-0-0-|


Bsus2 Gsus2
E. S E. S S S E S S S S E. S E S S S S E S S S S
|-------------------------|-0--0-0-0-0-0-0-0-0-0-0-0-|
|-------------------------|-0--0-0-0-0-0-0-0-0-0-0-0-|
|------4--4-4-4-4-4-4-----|-0--0-0-0-0-0-0-0-0-0-0-0-|
|-4--4-4--4-4-4-4-4-4-----|-5--5-5-5-5-5-5-5-5-5-5-5-|
|-2--2-2--2-2-2-2-2-2-----|-5--5-5-5-5-5-5-5-5-5-5-5-|
|---------------------0-0-|-5--5-5-5-5-5-5-5-5-5-5-5-|


D5G5F#G5A5G5F#5 D5
PM--|
|--3--|
E S S E S S +S S S S S S S S Q E. S +E S S S +S E.
|-0-0-0-0-0-0-(0)---------------|-0----0-----0-(0)---------------0--|
|-0-0-0-0-0-0-(0)---------------|-0----0-----0-(0)---------------0--|
|-0-0-0-0-0-0-(0)---------------|-0----0-----0-(0)---------------0--|
|-5-5-5-5-5-5-(5)-0-5S4-5-7-5-4-|-0----0-----0-(0)--4-5---4-(4)--0--|
|-5-5-5-5-5-5-(5)-0-5S4-5-7-5-4-|-0----0-----0-(0)---------------0--|
|-5-5-5-5-5-5-(5)-0-5S4-5-7-5-4-|-0----0-----0-(0)---------------0--|
|
| Gtr VI
| W Q E S S +E S S +S E.
|-------------------------------|-----------------------------------|
|-------------------------------|-----------------------------------|
|-------------------------------|-----------------------------------|
|-------------------------------|-----------------------------------|
|-------------------------------|------------9-(9)-10p==9---(9)-10--|
|-------------------------------|----/10--12------------------------|


|--3---|
Q E. S +E S S S +S E.
|-0----------0--------0-(0)-----------------0----||
|-0----------0--------0-(0)-----------------0----||
|-0----------0--------0-(0)-----------------0----||
|-0----------0--------0-(0)---5-7----5--(5)-0----||
|-0----------0--------0-(0)-----------------0----||
|-0----------0--------0-(0)-----------------0----||
|
| S S S S S S S S S S S S +Q
|------------------------------------------------||
|------------------------------------------------||
|-----------------------------9------------------||
|---------9--------9-10-----9-----12---(12)------||
|-9-10-12---10--12------12-----------------------||
|------------------------------------------------||


Outro-Chorus
Csus2 Gsus2 D5G5F#G5A5G5F#5
Q E. S +S S E S S S S E. S E. S S S S S S S S S
|-------0--0-(0)-0-0-0-0-----|---0--0-0--0-0---------------|
|-------0--0-(0)-0-0-0-0-----|---0--0-0--0-0---------------|
|-------5--5-(5)-5-5-5-5-0---|---0--0-0--0-0---------------|
|---5---5--5-(5)-5-5-5-5-0---|---5--5-5--5-5-0-5-4-5S7-5-4-|
|---3---3--3-(3)-3-3-3-3-0---|---5--5-5--5-5-0-5-4-5S7-5-4-|
|--------------------------6-|---5--5-5--5-5-0-5-4-5S7-5-4-|
|
| +W +W
|----------------------------|-----------------------------|
|----------------------------|-----------------------------|
|----------------------------|-----------------------------|
|-(12)-----------------------|-(12)------------------------|
|----------------------------|-----------------------------|
|----------------------------|-----------------------------|


D5
|-3-| |-3-|
Q E. S +E S S S +S S E Q E. S +E S S S +S E.
|-0--0--0-(0)-----------0-0-|-0--0--0-(0)-----------0--|
|-0--0--0-(0)-----------0-0-|-0--0--0-(0)-----------0--|
|-0--0--0-(0)-----------0-0-|-0--0--0-(0)-----------0--|
|-0--0--0-(0)-4h5p4-(4)-0-0-|-0--0--0-(0)-5h7p5-(5)-0--|
|-0--0--0-(0)-----------0-0-|-0--0--0-(0)-----------0--|
|-0--0--0-(0)-----------0-0-|-0--0--0-(0)-----------0--|


Csus2 Gsus2 D5G5F#G5A5G5F#5
Q E. S +S S E S S S S E. S E. S S S S S S S S S
|----0--0-(0)-0-0-0-0-----|-0--0-0--0-0---------------|
|----0--0-(0)-0-0-0-0-----|-0--0-0--0-0---------------|
|----5--5-(5)-5-5-5-5-0---|-0--0-0--0-0---------------|
|-5--5--5-(5)-5-5-5-5-0---|-5--5-5--5-5-0-5-4-5S7-5-4-|
|-3--3--3-(3)-3-3-3-3-0---|-5--5-5--5-5-0-5-4-5S7-5-4-|
|-----------------------6-|-5--5-5--5-5-0-5-4-5S7-5-4-|


D5
|--3---|
Q E. S +E S S S +S S E
|-0---0---------0-(0)-------------------0--0-------|
|-0---0---------0-(0)-------------------0--0-------|
|-0---0---------0-(0)-------------------0--0-------|
|-0---0---------0-(0)-----4h5p===4-(4)--0--0-------|
|-0---0---------0-(0)-------------------0--0-------|
|-0---0---------0-(0)-------------------0--0-------|
|
| Gtr VI
| |--3--|
| Q S S S S S S S S S S S S S
|----11--12-14-11-12--14-11---12---14--11-14p12p11-|
|--------------------------------------------------|
|--------------------------------------------------|
|--------------------------------------------------|
|--------------------------------------------------|
|--------------------------------------------------|


|-3-|
Q E. S +E S S S +S E.
|--0---0--0-(0)--------------0----|
|--0---0--0-(0)--------------0----|
|--0---0--0-(0)--------------0----|
|--0---0--0-(0)-5h7p5--(5)---0----|
|--0---0--0-(0)--------------0----|
|--0---0--0-(0)--------------0----|
|
| H. +S S E
|-12------------------(12)-(12)---|
|---------------------------------|
|---------------------------------|
|-------------------------------0-|
|-------------------------------0-|
|-------------------------------0-|


H.=H
C5 Gsus2 D5
>
H. +E. S W W
|----------------------------------0-|-0------------------------|-------*|
|----------------------------------0-|-0------------------------|-------*|
|----------------------------------0-|-0------------------------|-------*|
|-5------------------------(5)-----5-|-5------------------------|-------*|
|-3------------------------(3)-----5-|-5------------------------|-------*|
|----------------------------------5-|-5------------------------|-------*|
|
| Gtr III
| E. S +S S S S +S S S S +S S S S S S S S +S S S S +H W
|----0-(0)---------------------------|-------0-(0)--------------|-^0----*|
|----------0-------------------0-----|-------------0------------|-^0----*|
|------------0-------3---0-(0)---0---|---------------0----------|-^0----*|
|-5------------5-(5)---5-------------|---0-------------0-(0)----|-^0----*|
|-3----------------------------------|--------------------------|-^0----*|
|----------------------------------5-|-5---5--------------------|-^0----*|




--------------------------------------------------------------------------------


Duration Legend
---------------
W - whole; H - half; Q - quarter; E - 8th; S - 16th; T - 32nd; X - 64th; a - acciaccatura
+ - note tied to previous; . - note dotted; .. - note double dotted
Uncapitalized letters represent notes that are staccato (1/2 duration)
Irregular groupings are notated above the duration line
Duration letters will always appear directly above the note/fret number it represents the
duration for. Duration letters with no fret number below them represent rests. Multi-
bar rests are notated in the form Wxn, where n is the number of bars to rest for. Low
melody durations appear below the staff

Tablature Legend
----------------
h - hammer-on
p - pull-off
b - bend
pb - pre-bend
r - bend release (if no number after the r, then release immediately)
/\ - slide into or out of (from/to "nowhere")
s - legato slide
S - shift slide
- natural harmonic
[n] - artificial harmonic
n(n) - tapped harmonic
~ - vibrato
tr - trill
T - tap
TP - trem. picking
PM - palm muting
\n/ - tremolo bar dip; n = amount to dip
\n - tremolo bar down
n/ - tremolo bar up
/n\ - tremolo bar inverted dip
= - hold bend; also acts as connecting device for hammers/pulls
- volume swell (louder/softer)
x - on rhythm slash represents muted slash
o - on rhythm slash represents single note slash

Misc Legend
-----------
| - bar
|| - double bar
||o - repeat start
o|| - repeat end
*| - double bar (ending)
: - bar (freetime)
$ - Segno
& - Coda
Tempo markers - = BPM(8/16=s8/s16), where s8 = swing 8ths, s16 = swing 16ths



Like us on Facebook.....
-> Loading Time :0.0216 sec