The Belated Tabs & Lyrics by Last Chapter

The Belated

guitar tabs lyrics

Last Chapter

Album : The Living WatersPlayStop


TAB BY: DARRIN DAVIS-ENJOY! I DIDN'T DO THE SOLO, THAT WAS CODY GRIFFITH,BUT HERE IS
EVERYTHING ELSE. TUNING ON CD "THE LIVING WATERS" ONE FULL STEP DOWN.
BRAINTICKET RECORDS.

THE BELATED
RIFF 1A
|-----------------------------------------------------------------|
|-----------------------------------------------------------------|
|----------------------------------------------------------------.|
|----------------------------------------------------------------.|REPEAT

|-----------------------------------------------------------------|
|----0-9-10-9----0-7-8-7----3-5-3----0-9-10-9----0-7-8-7----3^----|
RIFF 1B
|-------------------------------------------------------------------------|
|-------------------------------------------------------------------------|
|------------------------------------------------------------------------.|
|------11--12--11------9--10--9---5--7--5------11--12--11------9-10-9--5-.|
|------11--12--11------9--10--9---5--7--5------11--12--11------9-10-9--5--|
|---0---9--10---9---0--7---8--7---3--5--3---0---9--10---9---0--7--8-7--3--|
CHORUS
|----------------------------------------------------------------------------|
|----------------------------------------------------------------------------|
|------------------------------------7-5-4-----------------------------------|
|-5-----5-----5-----5-----5-----5-5--------7-5-4-----------------------------|
|-5-----5-----5-----5-----5-----5-5--------------7-5--------5----------5-----|
|-3-x-x-3-x-x-3-x-x-3-x-x-3-x-x-3-3------------------0---/7---6\-0--/7---6---|

|----------------------------------------------------------------------------|
|----------------------------------------------------------------------------|
|------------------------------------7-5-4-----------------------------------|
|-5-----5-----5-----5-----5-----5-5--------7-5-4-----------------------------|
|-5-----5-----5-----5-----5-----5-5--------------7-5--------5----------5-----|
|-3-x-x-3-x-x-3-x-x-3-x-x-3-x-x-3-3------------------0---/7---6\-0--/7---6---|

INTERLUDE
|-------------------------------------------------------------------------|
|-------------------------------------------------------------------------|
|-------------------------------------------------------------------------|
|-2-------2-------------2-------2-----------2-2-2--------2-------------2--|
|-2-------2-------------2-------2-----------2-2-2--------2-------------2--|
|-0-3-4-3-0-3-4-3-1-3-1-0-3-4-3-0-3-4-6-4-3-0-0-0--3-4-3-0-3-4-3-1-3-1-0--|

|-------------------------|-----------------------------------------------|
|-------------------------|------------------- X2 ------------------------|
|-------------------------|-----------------------------------------------|
|-------2-----------2-2-2-|-5-6-5-2-5-6-5-3-5-3-2-5-6-5-2-5-6-8-6-5--2-2-2|
|-------2-----------2-2-2-|-5-6-5-2-5-6-5-3-5-3-2-5-6-5-2-5-6-8-6-5--2-2-2|
|-3-4-3-0-3-4-6-4-3-0-0-0-|-3-4-3-0-3-4-3-1-3-1-0-3-4-3-0-3-4-6-4-3--0-0-0|

THERE ARE ALL THE PARTS AND COMPONENTS EXCEPT FOR THE SOLO. CALL "COD-US
THE EXECUTIONER" FOR THAT-HA,HA!! HERE IS THE SONG STRUCTURE AND LYRICS AS
FOLLOWS:

RIFF 1A X4 CONFUSION AND SORROW (VERSE 1)
>INTRO & VERSE 1 A MELTING POT FULL OF FEAR
RIFF 1B X2 LIVING IN THE SHAWDOWS OF DESTRUCTION
WHY DON'T YOU PEOPLE HEAR...?
CHORUS
INTERNAL CONFLICTS (CHORUS)
RIFF 1A X 2 WAGING WAR INSIDE MY HEAD
>VERSE 2 HORRIFIC VISIONS
RIFF 1B X 2 THIS IS WHAT THE PROPHETS SAID

INTERLUDE JUDGEMENT HAS BEEN WRITTEN (VERSE 2)
FIRE HAS BEEN FORETOLD
CHORUS IN THE DISTANCE SODOM BURNING
REAPED WHAT THEY HAD SOWN
RIFF 1A X 2
>"SOLO"-CODY G. SINKING SHIPS SAIL ACROSS THE SEAS OF
RIFF 1B X 2 SORROW (INTERLUDE)
TRIBULATION WILL IT BE TOMORROW
CHORUS SECOND COMING EYES OF FIRE BURNING
TO CLAIM THE WORLD AS KING OF KINGS
INTERLUDE AS OUTRO

Like us on Facebook.....
-> Loading Time :0.0080 sec