Severe Burns Tabs & Lyrics by Entombed

Severe Burns

guitar tabs lyrics

Entombed

Album : Clandestine death metal PlayStop


Band- Entombed
Song- Severe Burns

Tune Down 2 Steps

Riff 1

C -------------------------------------------------------------------------------------|
G -------------------------------------------------------------------------------------|
Eb ------------------------------------6--10-------------------------------------10--6--|

Bb -----5--8------8--11------5--8------6--10------5--8------8--11------5--8------10--6--|
F -----5--8------8--11------5--8------4--8 ------5--8------8--11------5--8------8 --4--|
C -0-0-3--6--0-0-6--9 --0-0-3--6--0-0--------0-0-3--6--0-0-6--9 --0-0-3--6--0-0--------|

Riff 2

C -----------------------------------------\--|
G -----------------------------------------\--|
Eb ----------------------------14---13------\--|
Bb --------9--8--------12-------------------\--|
F -7---------------------------------------\--|
C -----------------------------------------\--|

Riff 2A

C -----------------------------------------------\--|
G -----------------------------------------------\--|
Eb -----------------------------------14--13------\--|
Bb ----------9--8----/17----12----15--------------\--|
F -7----10---------------------------------------\--|
C -----------------------------------------------\--|

Riff 2B

C -------------------------------------------------------------------------------------------|
G -------------------------------------------------------------------------------------------|
Eb -------------------------------------------------------------------------------------------|
Bb -------------------------------------------------------------------------------------------|
F -77-77-77-77-77-77-------------------------------55-55-55-55-55-55-------------------------|
C -------------------77-77-66-66-66-66-66-66-66-66-------------------55-55-44-44-44-44-11-11-|

Riff 3

C -----------------------------------------------------------------------------------------------------------|
G -----------------------------------------------------------------------------------------------------------|
Eb -----------------------------------------------------------------------------------------------------------|
Bb -2--2--2--2----5-5-7-7-8-8-10-----------------10-8---7-8----2--2--2--2----5-5-7-7-8-8-10-3--------5--------|
F -2--2--2--2----5-5-7-7-8-8-10-----------------10-8---7-8----2--2--2--2----5-5-7-7-8-8-10-3--------5--------|
C -0--0--0--0--0-3-3-5-5-6-6-8 -0-0-0-0-0-0-0-0-8
-1--------3--------|

Riff 4

C ----------------------------------------------------------------------------------------------------------------|
G ----------------------------------------------------------------------------------------------------------------|
Eb -----------------------------------------------------------------------14-15----------------------------14-15---|
Bb -2----------------2--------------------------17--15-------14-------15--14-15------17--15-------14-------14-15---|
F -2----------------2--------------------------17--15-------14-------15--12-13------17--15-------14-------12-13---|
C -0----------------0----------1--/14--\--00-0-15--13--00-0-12--00-0-13--------00-0-15--13--00-0-12--00-0---------|

C ----------------------------------------------------------------------------------------------------------------|
G ----------------------------------------------------------------------------------------------------------------|
Eb -9----------------8----------------------------------------------------14-15----------------------------14-15---|
Bb -9----------------8--------------------------17--15-------14-------15--14-15------17--15-------14-------14-15---|
F -7----------------6--------------------------17--15-------14-------15--12-13------17--15-------14-------12-13---|
C -7----------------6-------------/12--\--00-0-15--13--00-0-12--00-0-13--------00-0-15--13--00-0-12--00-0---------|

Riff 5

C -----------------------------------------------------------------------------------------------------------------|
G -----------------------------------------------------------------------------------------------------------------|
Eb -------------------------------5----9----------------------------------------------------------------------------|
Bb -6----3----5----2----6----3----5----9----------------------------------------------------------------------------|
F -6----3----3----2----6----3----3----7----------------------------33-33-33-33-------------------------------------|
C -4----1----3----0----4----1--------------44-44-44-44-11-11-11-11-------------00-00-00-00-44-44-44-44-11-11-11-11-|

C ------------------|
G ------------------|
Eb ------------------|
Bb ------------------|
F -33-33-33-33-7----|
C ------------------|

Riff 5A

C -----------------------------------------------------------------------------------------------------------------|
G -----------------------------------------------------------------------------------------------------------------|
Eb -------------------------------5----9----------------------------------------------------------------------------|
Bb -6----3----5----2----6----3----5----9----------------------------------------------------------------------------|
F -6----3----3----2----6----3----3----7----------------------------33-33-33-33-------------------------------------|
C -4----1----3----0----4----1--------------44-44-44-44-11-11-11-11-------------00-00-00-00-44-44-44-44-11-11-11-11-|

C ---------------|
G ---------------|
Eb ---------------|
Bb -------------2-|
F -33-33-33-33-2-|
C -------------0-|

Riff 6

C -----------------------------------------------------|
G -----------------------------------------------------|
Eb -----------------------------------------------------|
Bb -2-2-2----8---2-2-2----8---2-2-2----8---2-2-2----8---|
F -2-2-2----8---2-2-2----8---2-2-2----8---2-2-2----8---|
C -0-0-0--0-6---0-0-0--0-6---0-0-0--0-6---0-0-0--0-6---|

Riff 6A

C -------------------------------------------------------|
G -------------------------------------------------------|
Eb ------------------------------------15------------15---|
Bb -2-2-2----8---2-2-2----8---2-2-2----15---2-2-2----15---|
F -2-2-2----8---2-2-2----8---2-2-2----13---2-2-2----13---|
C -0-0-0--0-6---0-0-0--0-6---0-0-0--0------0-0-0--0------|

Riff 7

C -----------------------------------------------------------------------------------|
G -----------------------------------------------------------------------------------|
Eb -----------------------------------------------------------------------------------|
Bb -------------------------5-----7-----8p7-8-------------------------5---7---8---7-8-|
F ---------------------------6-6---6-6---------------------------------6---6---6-----|
C -00-00-00-00-00-00-00-00-------------------00-00-00-00-00-00-00-00-----------------|

Riff 8

C -------------------------------------------------------------------------------------|
G -------------------------------------------------------------------------------------|
Eb ----------8-----------------8-------------------8-----------------8--8--8--8--7--8---|
Bb -2--------8--------2--------8------7-8-2--------8--------2--------8--8--8--8--7--8---|
F -2--------6--------2--------6------7-8-2--------6--------2--------6--6--6--6--5--6---|
C -0--------6--------0--------6------5-6-0--------6--------0--------6--6--6--6--5--6---|
|--3--| |--3--------------------------------------|

Riff 8A

C --------------------------------------------------------------------------------- ---|
G --------------------------------------------------------------------------------- ---|
Eb ----------8-----------------8-------------------8-----------------8-------------- ---|
Bb -2--------8--------2--------8------7-8-2--------8--------2--------8------7--8--2- -2-|
F -2--------6--------2--------6------7-8-2--------6--------2--------6------7--8--2- -2-|
C -0--------6--------0--------6------5-6-0--------6--------0--------6------5--6--0- -0-|

Riff 9

C -----------------------------------------------------------------------------------------------|
G -----------------------------------------------------------------------------------------------|
Eb ---------------------------------3-4-3h4p3---3-4-3h4p3-----------------------------------------|
Bb -2-------------------2-------------------------------------------------------------------------|
F -2-------------------2---------1-----------------------5----9----4----8----5----9----4----8----|
C -0----4----3----4----0----4----------------3---------------------------------------------------|

Riff 10

C -----------------------------------------------------------------------------|
G -----------------------------------------------------------------------------|
Eb -8---------7-----------------------------------------------------------------|
Bb -8----4----7----3----8--4--7--3--8--4--7--3--8-4-7-3-8-4-7-3-8-4-7-3-8-4-7-3-|
F -6----4----5----3----6--4--5--3--6--4--5--3--6-4-5-3-6-4-5-3-6-4-5-3-6-4-5-3-|
C -6----2----5----1----6--2--5--1--6--2--5--1--6-2-5-1-6-2-5-1-6-2-5-1-6-2-5-1-|

Riff 11

C ------------------------------------|
G ------------------------------------|
Eb ------------------------------------|
Bb -2------8------8--2------8------10--|
F -2------6------8--2------6------10--|
C -0------6------6--0------6------8 --|

Riff 12

C ----------------------------------------------------------------|
G ----------------------------------------------------------------|
Eb ----------------------------------------------------------------|
Bb -------------------3--------------------3--------------------2--|
F -------------------3--------------------3--------------------2--|
C -00-00-00-00-00-00-1--00-00-00-00-00-00-1--00-00-00-00-00-00-0--|

Order

Riff 1 x 2
Riff 2/2A X 2
Riff 3 x 1
Riff 4 x 1
Riff 5 x 1
Riff 6 x 2
Riff 5 x 1
Riff 7 x 4
Riff 8 x 1
Riff 7 x 2
Riff 8A x 1
Riff 9 x 1
Riff 10 x 1
Solo over Riff 11 x 4
Riff 12 x 1
Riff 2/2A x 2
Riff 2B x 2
Riff 6A x 1
Riff 5A x 1

Like us on Facebook.....
-> Loading Time :0.0151 sec