Empty Promises Tabs & Lyrics by Hatebreed

Empty Promises

guitar tabs lyrics

Hatebreed

Album : Satisfaction Is the Death of Desire hardcore PlayStop


Title : Empty Promises
Artist : Hatebreed
Album : Satisfaction is the death of Desire
Transcribed by : By DimeBolt (dime_bolt@email.com)

Note: This is done by ear so there will be some mistakes, but I think it is
pretty accurate. Enjoy

Legend
------


h = hammer-on
p = pull-off
/ = slide up
\ = slide down
~ = vibrato
x\ = pick slide


Tune down 2 whole steps (C,F,Bb,Eb,G,C)


Intro "You come to me..."
1||-----------------||-----------------|-----------------|-----------------|---------||
2||-----------------||-----------------|-----------------|-----------------|---------||
3||-----------------||-----------------|-----------------|-----------------|---------||
4||-----------------||-----------------|-----------------|-----------------|---------||
5||-----5-------3---||-2---2---2---3-5-|---5---5---3-2---|-2---2---3-5---6-|---6---3-||
6||-00003---00001---||-0---0---0---1-3-|---3---3---1-0---|-0---0---1-3---4-|---4---1-||

"How can you save me..."
1||---------||-----------------|-----------------||
2||---------||-----------------|-----------------||
3||-----9---||-----------------|-----------------||
4||-----9---||-----------------|-----------------||
5||-2---7---||-2---5-8---2-5-8-|-2--5--8-7--5--7-||
6||-0---0---||-0---3-6---0-3-6-|-0--3--6-5--3--5-||

Like us on Facebook.....
-> Loading Time :0.0084 sec