Sands Hotel Tabs & Lyrics by Heatmiser

Sands Hotel

guitar tabs lyrics

Heatmiser

Album : Dead Air alternative rock PlayStop


song : sands hotel
artist : heatmiser
tabbed by : oneshotnothing

standard tuning


INTRO/VERSE - GUITAR 1

e-|--------------------------------|--------------------------------|

b-|--------------------------------|--------------------------------|
g-|--------------------------------|--------------------------------|
d-|4-------4-----------4-----------|4-----------4-------4---4---4-4-|
a-|3-------3-----------3-----------|3-----------3-------3---3---3-3-|
E-|5-------5-----------5-----------|5-----------5-------5---5---5-5-|
|^ ' ' ' ^ ' ' ' ^ ' ' ' ^ ' ' ' |^ ' ' ' ^ ' ' ' ^ ' ' ' ^ ' ' ' |
1 2 3 4 1 2 3 4

e-|--------------------------------|--------------------------------|
b-|--------------------------------|--------------------------------|
g-|--------------------------------|----------------2---------------|
d-|4-------4-----------4-------4---|--------3--h4-------------------|
a-|3-------3-----------3-------3---|------------------------3-------|
E-|5-------5-----------5-------5---|--------------------------------|
|^ ' ' ' ^ ' ' ' ^ ' ' ' ^ ' ' ' |^ ' ' ' ^ ' ' ' ^ ' ' ' ^ ' ' ' |
1 2 3 4 1 2 3 4


VERSE - GUITAR 2

e-|--------------------------------|--------------------------------|
b-|--------------------------------|--------------------------------|
g-|--------------------------------|--------------------------------|
d-|7-----------7-----------7-------|--------7-------7-------7-------|
a-|7-----------7-----------7-------|--------7-------7-------7-------|
E-|5-----------5-----------5-------|--------5-------5-------5-------|
|^ ' ' ' ^ ' ' ' ^ ' ' ' ^ ' ' ' |^ ' ' ' ^ ' ' ' ^ ' ' ' ^ ' ' ' |
1 2 3 4 1 2 3 4

e-|--------------------------------|--------------------------------|
b-|--------------------------------|--------------------------------|
g-|--------------------------------|--------------------------------|
d-|7-----------7-----------7-------|----------------7---------------|
a-|7-----------7-----------7-------|--------8--h9-------------------|
E-|5-----------5-----------5-------|------------------------8-------|
|^ ' ' ' ^ ' ' ' ^ ' ' ' ^ ' ' ' |^ ' ' ' ^ ' ' ' ^ ' ' ' ^ ' ' ' |
1 2 3 4 1 2 3 4



CHORUS

e-|--------------------------------|--------------------------------|
b-|--------------------------------|--------------------------------|
g-|6---------------------------9---|--------------------------------|
d-|7---------------------------10--|--------------------------------|
a-|7---------------------------10--|--------------------------------|
E-|5---------------------------8---|--------------------------------|
|^ ' ' ' ^ ' ' ' ^ ' ' ' ^ ' ' ' |^ ' ' ' ^ ' ' ' ^ ' ' ' ^ ' ' ' |
1 2 3 4 1 2 3 4

e-|--------------------------------|--------------------------------|
b-|--------------------------------|--------------------------------|
g-|9-------------------------------|--------------------------------|
d-|10--------------10--11------14--|----------------10--11----------|
a-|10--------------10--11------14--|----------------10--11----------|
E-|8---------------8---9-------0---|----------------8---9-----------|
|^ ' ' ' ^ ' ' ' ^ ' ' ' ^ ' ' ' |^ ' ' ' ^ ' ' ' ^ ' ' ' ^ ' ' ' |
1 2 3 4 1 2 3 4


BRIDGE - strummed, repeat as necessary

e-|----------------|----------------|
b-|----------------|----------------|
g-|----------------|------8---------|
d-|7---------------|4-----8---------|
a-|7---------------|4-----6---------|
E-|5---------------|2---------------|
^ ' ^ ' ^ ' ^ ' |^ ' ^ ' ^ ' ^ ' |


ENDING - repeat as necessary, ends on third measure

e-|--------------------------------|--------------------------------|
b-|--------------------------------|--------------------------------|
g-|6-------6-------6---7---8---9---|--------9-------9-------9--b10--|
d-|7-------7-------7---8---9---10--|--------10------10------10--10--|
a-|7-------7-------7---8---9---10--|--------10------10------10--10--|
E-|5-------5-------5---6---7---8---|--------8-------8-------8---8---|
|^ ' ' ' ^ ' ' ' ^ ' ' ' ^ ' ' ' |^ ' ' ' ^ ' ' ' ^ ' ' ' ^ ' ' ' |
1 2 3 4 1 2 3 4

e-|--------------------------------|--------------------------------|
b-|--------------------------------|--------------------------------|
g-|9-------9-----------------------|--------------------------------|
d-|10------10------10--11------14--|----------------10--11----------|
a-|10------10------10--11------14--|----------------10--11----------|
E-|8-------8-------8---9-------0---|----------------8---9-----------|
|^ ' ' ' ^ ' ' ' ^ ' ' ' ^ ' ' ' |^ ' ' ' ^ ' ' ' ^ ' ' ' ^ ' ' ' |
1 2 3 4 1 2 3 4


http://www.myspace.com/heatmiserband/

Like us on Facebook.....
-> Loading Time :0.0084 sec