What Love Is Tabs & Lyrics by Dead Boys

What Love Is

guitar tabs lyrics

Dead Boys

Album : All This and MorePlayStop


-------------------------------------------------------------------------------
WHAT LOVE IS - Dead Boys
-------------------------------------------------------------------------------
Tabbed by: Michel de Bruyn
Email: miesisback@hotmail.com

Tuning: Standard


E-----------------------------------------------------|

B------------------------------3-----3----------------|
G-------------------2--2~~-----2-2---2-2--------------|
D--2-2-2-2-2-2-2-2--2--2~~-----0-2---0-2--------------| x 5
A--2-2-2-2-2-2-2-2--0--0~~-------0-----0--------------|
E--0-0-0-0-0-0-0-0------------------------------------|

E-----------------------------------------------------|
B-----------------------------------------------------|
G--9-9-9-9-9--7-7-7-7-7--5-5-5-5-5--2-2-2-2-2---------|
D--9-9-9-9-9--7-7-7-7-7--5-5-5-5-5--2-2-2-2-2---------| x 1
A--7-7-7-7-7--5-5-5-5-5--3-3-3-3-3--0-0-0-0-0---------|
E-----------------------------------------------------|

E-----------------------------------------------------|
B-----------------------------------------------------|
G--9-9-9-9-9--4-4-4-4-4--7-7-7-7-7--2-2-2-2-2---------| x 1
D--9-9-9-9-9--4-4-4-4-4--7-7-7-7-7--2-2-2-2-2---------|
A--7-7-7-7-7--2-2-2-2-2--5-5-5-5-5--0-0-0-0-0---------|
E-----------------------------------------------------|

E-----------------------------------------------------|
B-----------------------------------------------------|
G--9-9-9-9-9--4-4-4-4-4--2----------------------------| x 1
D--9-9-9-9-9--4-4-4-4-4--2----------------------------|
A--7-7-7-7-7--2-2-2-2-2--0----------------------------|
E-----------------------------------------------------|

E-----------------------------------------------------|
B------------------------------3-----3----------------|
G-------------------2--2~~-----2-2---2-2--------------|
D--2-2-2-2-2-2-2-2--2--2~~-----0-2---0-2--------------| x 4
A--2-2-2-2-2-2-2-2--0--0~~-------0-----0--------------|
E--0-0-0-0-0-0-0-0------------------------------------|

E-----------------------------------------------------|
B-----------------------------------------------------|
G--9-9-9-9-9--7-7-7-7-7--5-5-5-5-5--2-2-2-2-2---------|
D--9-9-9-9-9--7-7-7-7-7--5-5-5-5-5--2-2-2-2-2---------| x 1
A--7-7-7-7-7--5-5-5-5-5--3-3-3-3-3--0-0-0-0-0---------|
E-----------------------------------------------------|

E-----------------------------------------------------|
B-----------------------------------------------------|
G--9-9-9-9-9--4-4-4-4-4--7-7-7-7-7--2-2-2-2-2---------| x 1
D--9-9-9-9-9--4-4-4-4-4--7-7-7-7-7--2-2-2-2-2---------|
A--7-7-7-7-7--2-2-2-2-2--5-5-5-5-5--0-0-0-0-0---------|
E-----------------------------------------------------|

E-----------------------------------------------------|
B-----------------------------------------------------|
G--9-9-9-9-9--4-4-4-4-4--2----------------------------| x 1
D--9-9-9-9-9--4-4-4-4-4--2----------------------------|
A--7-7-7-7-7--2-2-2-2-2--0----------------------------|
E-----------------------------------------------------|

During solo:

E-----------------------------------------------------|
B-----------------------------------------------------|
G--9-9-9-9-9--4-4-4-4-4--7-7-7-7-7--2-2-2-2-2---------|
D--9-9-9-9-9--4-4-4-4-4--7-7-7-7-7--2-2-2-2-2---------| x 4
A--7-7-7-7-7--2-2-2-2-2--5-5-5-5-5--0-0-0-0-0---------|
E-----------------------------------------------------|

E-----------------------------------------------------|
B------------------------------3-----3----------------|
G-------------------2--2~~-----2-2---2-2--------------|
D--2-2-2-2-2-2-2-2--2--2~~-----0-2---0-2--------------| x 2
A--2-2-2-2-2-2-2-2--0--0~~-------0-----0--------------|
E--0-0-0-0-0-0-0-0------------------------------------|

E-----------------------------------------------------|
B-----------------------------------------------------|
G--9-9-9-9-9--7-7-7-7-7--5-5-5-5-5--2-2-2-2-2---------|
D--9-9-9-9-9--7-7-7-7-7--5-5-5-5-5--2-2-2-2-2---------| x 1
A--7-7-7-7-7--5-5-5-5-5--3-3-3-3-3--0-0-0-0-0---------|
E-----------------------------------------------------|

E-----------------------------------------------------|
B-----------------------------------------------------|
G--9-9-9-9-9--4-4-4-4-4--7-7-7-7-7--2-2-2-2-2---------| x 1
D--9-9-9-9-9--4-4-4-4-4--7-7-7-7-7--2-2-2-2-2---------|
A--7-7-7-7-7--2-2-2-2-2--5-5-5-5-5--0-0-0-0-0---------|
E-----------------------------------------------------|

E-----------------------------------------------------|
B-----------------------------------------------------|
G--9-9-9-9-9--4-4-4-4-4--2----------------------------| x 1
D--9-9-9-9-9--4-4-4-4-4--2----------------------------|
A--7-7-7-7-7--2-2-2-2-2--0----------------------------|
E-----------------------------------------------------|
end

Enjoy!

| / slide up
| \ slide down
| h hammer-on
| p pull-off
| ~ vibrato
| + harmonic
| x Mute note
===============================================================================


Like us on Facebook.....
-> Loading Time :0.0108 sec