Requiem Tabs & Lyrics by Paradise Lost

Requiem

guitar tabs lyrics

Paradise Lost

Album : In Requiem gothic metal PlayStop


-------------------------------------------------------------------------------
Requiem - Paradise Lost
-------------------------------------------------------------------------------
Tabbed by: tbarrettl
Email: tbarrettl@hotmail.com

Tuning: Normal

Organ or Keyboard Starts
Intro Solo


e|---------------------------------------------------------------------------|
B|5-4/5/6/7-6/7/8-9-8-87-76-5---7-6-5----------------------------------------|
G|----------------------------6----------------------------------------------|
D|---------------------------------------------------------------------------|
A|---------------------------------------------------------------------------|
E|---------------------------------------------------------------------------|
X2
Riff 1
e|---------------------------------------------------------------------------|
B|---------------------------------------------------------------------------|
G|---------------------------------------------------------------------------|
D|-2-2-2-4-2-2-2--2-2-2-4-2-2-2-4-2-2-2-4-2-2-2--2-2-2-4-2-2-2-4-------------|
A|-2-2-2-4-2-2-2--2-2-2-4-2-2-2-4-2-2-2-4-2-2-2--2-2-2-4-2-2-2-4-------------|
E|-0-0-0-2-0-0-0--0-0-0-2-0-0-0-2-0-0-0-2-0-0-0--0-0-0-2-0-0-0-2-------------|

Verse
e|---------------------------------------------------------------------------|
B|---------------------------------------------------------------------------|
G|---------------------------------------------------------------------------|
D|xxxxxxxxxxxxxxxxxxxxxxxxxxxxxxxxxxxxxxxxxxxxxxxxxxxxxxxxxxxxxxxxxxxxxxxxxxx|
A|xxxxxxxxxxxxxxxxxxxxxxxxxxxxxxxxxxxxxxxxxxxxxxxxxxxxxxxxxxxxxxxxxxxxxxxxxxx|
E|xxxxxxxxxxxxxxxxxxxxxxxxxxxxxxxxxxxxxxxxxxxxxxxxxxxxxxxxxxxxxxxxxxxxxxxxxxx|

Repeat Riff1
Repeat Verse

Riff2
e|---------------------------------------------------------------------------|
B|---------------------------------------------------------------------------|
G|---------------------------------------------------------------------------|
D|4-4-4-4-4-4-5-4-4-4-4-4-4-6-4-4-4-4-4-4-4-5-4-4-4-4-4-6--------------------|
A|4-4-4-4-4-4-5-4-4-4-4-4-4-6-4-4-4-4-4-4-4-5-4-4-4-4-4-6--------------------|
E|2-2-2-2-2-2-3-2-2-2-2-2-2-4-2-2-2-2-2-2-3-2-2-2-2-2-2-4--------------------|
Repeat Intro Solo Twice

Bridge
e|---------------------------------------------------------------------------|
B|---------------------9-7--9--7--9--7--9--7---------------------------------|
G|8-9-987-876-765-654--------------------------------------------------------|
D|8-9-987-876-765-654--------------------------------------------------------|
A|---------------------------------------------------------------------------|
E|---------------------------------------------------------------------------|
Repeat Riff 1
Repeat Intro Solo Twice

Solo
e|---------------------------------------------------------------------------|
B|9-8-7-10-12-11-10-13-15-16~18-20-22-23-21-18-------------------------------|
G|---------------------------------------------------------------------------|
D|---------------------------------------------------------------------------|
A|---------------------------------------------------------------------------|
E|---------------------------------------------------------------------------|
Repeat then Riff 1 till Fade


| / slide up
| \ slide down
| h hammer-on
| p pull-off
| ~ vibrato
| + harmonic
| x Mute note
===============

Like us on Facebook.....
-> Loading Time :0.0164 sec