Bleeding Heart Disease Tabs & Lyrics by NOFX

Bleeding Heart Disease

guitar tabs lyrics

NOFX

Album : Heavy Petting Zoo punk PlayStop


NOFX
"Bleeding Heart Disease"
Heavy Petting Zoo
tabbed by Daaaaaaavid
daaaaaaavid@hotmail.com

This is a cool song, and it's
on a cool album..so here ya go.

Chords:


B Db E B5 Bb5 Ab5 Gb5 E5 G5 E5 A5 Db5
II
e|-7---9 ---0--------------------------------------|
B|-7---9 ---0--------------------------------------|
G|-8---10---1---------------------------9----------|
D|-9---11---2---9---8---6---4---2---5---9---7---11-|
A|-9---11---2---9---8---6---4---2---5---7---7---11-|
E|-7---9 ---0---7---6---4---2---0---3-------5---9 -|

(just bass)

How money pol

(guitar comes in)

B Db E
luted my mind

on "mind," this riff comes in:

e|---------------------------------|
B|---------------------------------|
G|---------------------------------|
D|-8-/-9-9-x-x-x-x-x-8-/-9-9-x-x-x-| (play 4 times)
A|-x-----x-x-x-x-x-x-x-----x-x-x-x-|
E|-6-/-7-7-x-x-x-x-x-6-/-7-7-x-x-x-|

and then..

B5 Bb5
Dough, what our lives are lived for

Ab5 Gb5
Rae, just a crazy Aussie

E5 G5 B5
Me, the generation forges on

Bb5
Fodder for corporations

Ab5 Gb5
Sewing our lips together

E5 G5 B5
La, such a nice place to get shot

Ab5 E5(II)
But don't forget the T, it follows

B5 Bb5
liber in the Constitution

A5 Ab5
Following the part about pursuit

on "suit," play this riff again

e|-----------------------------------|
B|-----------------------------------|
G|-----------------------------------|
D|-9-9-9-9-x-x-x-x-x-8-/-9-9-9-x-x-x-|
A|-x-x-x-x-x-x-x-x-x-x-----x-x-x-x-x-|
E|-7-7-7-7-x-x-x-x-x-6-/-7-7-7-x-x-x-|

and then..

Ab5 E5(II)
Of happiness, the bi-product of

B5 Bb5
Colonial precious metal

A5 Ab5 B5
Mine extracts, which brings us back to dough

on "dough," play this riff:

e|---------------|
B|---------------|
G|---8-8-----9-9-|
D|-9-9-9-----9-9-| (play 6 times)
A|-9-9-9-----7-7-|
E|-7-7-7-5-4-----|

Do do do do do do do
Do do do do do do do
Do do do do do do do
Do do do do do do do

and then..

B5 A5 Ab5 G5
Today I saw a kid torture a cat

B5 A5 Ab5 G5
Too much leisure, teenage Norman Rockwell paints it black

then play this riff again:

e|-----------------------------------------------------|
B|-----------------------------------------------------|
G|-----------------------------------------------------|
D|-9-9-9-9-x-x-x-x-x-8-/-9-9-9-x-x-x-8-/-9-9-9-x-x-x-9-|
A|-x-x-x-x-x-x-x-x-x-x-----x-x-x-x-x-x-----x-x-x-x-x-x-|
E|-7-7-7-7-x-x-x-x-x-6-/-7-7-7-x-x-x-6-/-7-7-7-x-x-x-7-|

and then:

B5 Bb5
How did the chain get started

Ab5 Gb5
More is what everyone wants

E5 G5 B5
Needy is what none of us are

Bb5 Ab5
Co-operation died last night

Gb5 E5
Ruptured bleeding heart foresight

G5 B5
Me I'm just a loo

Ab5 E5(II)
So don't expect the best you won't be

B5 Bb5
disappointed when you take a

A5 Ab5
bite and watch the worm crawl back inside

on "side" play this again:

e|---------------------------------|
B|---------------------------------|
G|---------------------------------|
D|-9-9-9-9-x-x-x-x-x-9-9-9-9-x-x-x-|
A|-x-x-x-x-x-x-x-x-x-x-x-x-x-x-x-x-|
E|-7-7-7-7-x-x-x-x-x-7-7-7-7-x-x-x-|

Ab5 E5(II)
Don't believe the fairy tales of

B5 Bb5
million dollar happiness, Los

A5 Ab5 B5
Angelestic lifestyles chardonnay

then back to this riff:

e|---------------|
B|---------------|
G|---8-8-----9-9-|
D|-9-9-9-----9-9-| (play 6 times)
A|-9-9-9-----7-7-|
E|-7-7-7-5-4-----|

Pursuit of million dollar

(Do do do do do do do)
happiness Pursuit of million dollar

(Do do do do do do do)
happiness Pursuit of million dollar

(Do do do do do do do)
happiness Pursuit of million dollar

(Do do do do do do do)
happiness Pursuit of million dollar

B5 Bb5
happiness was killed we watched it

Ab5 Gb5 E5
bleed, some say it died from hate

G5
some say from bleeding heart disease

on "sease" play this riff again:

e|-----------------------------------------------------|
B|-----------------------------------------------------|
G|-----------------------------------------------------|
D|-9-9-9-9-x-x-x-x-x-8-/-9-9-9-x-x-x-8-/-9-9-9-x-x-x-9-|
A|-x-x-x-x-x-x-x-x-x-x-----x-x-x-x-x-x-----x-x-x-x-x-x-|
E|-7-7-7-7-x-x-x-x-x-6-/-7-7-7-x-x-x-6-/-7-7-7-x-x-x-7-|

then:

B Db E B
How mo ney pol

here one guitar plays the chords
and the other plays this riff
until the end:

(with wah)
e|-7 -7 -7 -|
B|-12-12-12-|
G|-- -- -- -|
D|-- -- -- -|
A|-- -- -- -|
E|-- -- -- -|

B5 Db5 E5(II) B5
lu ted my mind

B5 Db5 E5(II) B5
How mo ney pol

B5 Db5 E5(II) B5
lu ted my mind

Like us on Facebook.....
-> Loading Time :0.0345 sec